Acoustical Guitar Instrumental Music

Acoustical Guitar Instrumental Music

Original solo acoustic instrumentals

Home page of acoustic guitar instrumentalist, Peter Neri.

"Night Visions is a CD of thoughtful and often stunning solo guitar pieces. Riding a continuum between classical guitar music and the aural fireworks of a Michael Hedges, Neri's compositions are powerful listening." W.C. Valley News

Comment viewing options

Select your preferred way to display the comments and click "Save settings" to activate your changes.

To all of you crazy looking for the TABLATURE of Harem Scarem songs

Are you looking for a tablature of Harem Scarem HONESTLY and SOMETHING TO SAY??????E-mail me . . . .

Re: To all of you crazy looking for the TABLATURE of Harem Scarem songs

:please send me the guitar tabs of Harem Scarem's SOMETHING TO SAY??????E-mail me . . . .
thank you so much!!!!!!

Re: To all of you crazy looking for the TABLATURE of Harem Scarem songs

: :please send me the guitar tabs of Harem Scarem's SOMETHING TO SAY??????E-mail me . . . .
: thank you so much!!!!!!

Re: To all of you crazy looking for the TABLATURE of Harem Scarem songs

: : :please send me the guitar tabs of Harem Scarem's SOMETHING TO SAY??????and honestly...E-mail me . . . .
: : thank you so much!!!!!!

Re: To all of you crazy looking for the TABLATURE of Harem Scarem songs

: : :please send me the guitar tabs of Harem Scarem's SOMETHING TO SAY & honesty??????E-mail me . . . .
: : thank you so much!!!!!!

Re: To all of you crazy looking for the TABLATURE of Harem Scarem songs

: Are you looking for a tablature of Harem Scarem HONESTLY and SOMETHING TO SAY??????E-mail me . . . .

Re: To all of you crazy looking for the TABLATURE of Harem Scarem songs

: : Are you looking for a tablature of Harem Scarem HONESTLY and SOMETHING TO SAY??????E-mail me . . . .

send it here :)

Re: To all of you crazy looking for the TABLATURE of Harem Scarem songs

: : Are you looking for a tablature of Harem Scarem HONESTLY and SOMETHING TO SAY??????E-mail me . . . .

Re: To all of you crazy looking for the TABLATURE of Harem Scarem songs

: : : Are you looking for a tablature of Harem Scarem HONESTLY and SOMETHING TO SAY??????E-mail me . . . .

Re: To all of you crazy looking for the TABLATURE of Harem Scarem songs

Yes, Im looking for the tablature of harem Scarem, all songs.

Re: To all of you crazy looking for the TABLATURE of Harem Scarem songs

: Yes, Im looking for the Guitar tablature of harem Scarem.

Re: To all of you crazy looking for the TABLATURE of Harem Scarem songs

Yes, Im looking for the tablature of harem Scarem, all songs.

Re: To all of you crazy looking for the TABLATURE of Harem Scarem songs

: Are you looking for a tablature of Harem Scarem HONESTLY and SOMETHING TO SAY??????E-mail me . . . .

harem scarem something to say guitar tab

harem scarem something to say guitar tab w/ adlib

Re: harem scarem something to say guitar tab

: harem scarem something to say guitar tab w/ adlib. tnx jerry rapanan.

Re: harem scarem something to say guitar tab

: harem scarem something to say guitar tab w/ adlib

Re: harem scarem something to say guitar tab

: : harem scarem something to say guitar tab only the adlib

pagdating ng panahon

pagdating ng panahon

This popular thread has been given its own page : pagdating ng panahon

Urgent!

I really need to get hold of the chord/tab music for 'Sometimes/Everybody Hurts, by REM. Can you help me out? Thanks for your time

guitar chords for craig david

does anyone know the chords 4 craig davids" walking away"

Re: guitar chords for craig david

: does anyone know the chords 4 craig davids" walking away"

ive gt da chords mate, give me a bell first! cheers, deev!

Re: guitar chords for craig david

: does anyone know the chords 4 craig davids seven days? thanks.....

tablature of "HONESTLY" by Harem Scarem

i realy want to have that amazing tablature of Harem Scarem

Re: tablature of "HONESTLY" by Harem Scarem

: i realy want to have that amazing tablature of Harem Scarem

Re: tablature of "HONESTLY" by Harem Scarem

: : i realy want to have that amazing tablature of Harem Scarem

try this tab

Intro:
e|-----------------|-------------------7-|-----4-2-0-2-------0-|
b|-------------0---|-------------5p4---5-|-------------------0-|
g|-----------1---1-|-------------4-------|-2/4-4-2-1-2-----2---|
d|-----4---4-------|---------------------|---------------2-----|
a|---2---2---------|-----2-4/6-4-----4---|-------------0-------|
e|-0---------------|-2-4-----------------|---------------------|

e|-----0--------7-----5-----4-----2--------------|
b|-------4------9-9---5-7---5-5---4-4-----0------|
g|-2/4-----4--------------------------------1----|
d|--------------------------------------------2--|
a|-----------------------------------------------|
e|------------0-----0-----0-----0-----2/4--------|

Verse1: E-C#m-A2-E
e|-------0-------|-----------|-----------7-----|------------|-------0-------|
b|---------0-----|-----------|-----5p4---5---5-|------------|---------0-----|
g|-----------1---|-----------|---------------4-|-----4------|-----2-----2---|
d|-----2-------2-|-----------|---6---------6---|-4/6---6-4\-|---2---------2-|
a|---2-----------|-----2-4/6-|-4-------4-------|------------|-0-------------|
e|-0-------------|-2-4-------|-----------------|------------|---------------|
Verse1 Ending
e|------------------|-------0---------------------|
b|------------------|---------0-------------------|
g|-----------4------|-----------1-----------------|
d|-----2-4/6---6-4\-|-----2-------2-1-1-1-2p1-----|
a|-2-4--------------|---2---------------------(2)-|
e|------------------|-0-------------0-0-0-0-------|

Verse2: Verse2 Ending
e|-------0---------------------------------|
b|---------0-------9-------7-------|
g|-----------1-------9-------8-----|
d|-----2-------2-------9-------9-----------|
a|---2-----------7-------6-----------------|
e|-0---------------------------------------|

Refrain:
e|---------4---------------2---------------0----------------------|
b|-----------4---------------2---------------0---------5----7-----|
g|-----6-------6-------4-------4-------2-------2--------0-----8---|
d|---6---6-------6---4---4-------4---2---2-------2-----6--------9-|
a|-4---------------2---------------0---------------5/7----6-------|
e|----------------------------------------------------------------|
(A2)
e|---------4---------------2-------------0-------0-----|
b|-----------4---------------2-------------0---0---0---|
g|-----6-------6-------4-------4-------2-----2-------2-|
d|---6---6-------6---4---4-------4---2-----------------|
a|-4---------------2---------------0-------------------|
e|-----------------------------------------------------|

Chorus:
e|-------0-------|---------------------7-|------------|-------0-------|
b|---------0-----|---------------5p2---5-|------------|---------0-----|
g|-----------1---|---------------2-------|-----4------|-----2-----2---|
d|-----2-------2-|-------------6---------|-4/6---6-4\-|---2---------2-|
a|---2-----------|-----2-4/6-4-------4---|------------|-0-------------|
e|-0-------------|-2-4-------------------|------------|---------------|
Chorus Ending
e|------------------|-----------------------|
b|------------------|-----------------------|
g|-----------4------|-------1-2p1-----------|
d|-----2-4/6---6-4\-|-----2-------(2)-------|
a|-2-4--------------|---2-------------------|
e|------------------|-0---------------------|

try to copy and paste it to note pad or whatever. i got this from somewhere. there is a small mistake in that but its up to you on how are you going to play it many thanks!

try this tab

Intro:
e|-----------------|-------------------7-|-----4-2-0-2-------0-|
b|-------------0---|-------------5p4---5-|-------------------0-|
g|-----------1---1-|-------------4-------|-2/4-4-2-1-2-----2---|
d|-----4---4-------|---------------------|---------------2-----|
a|---2---2---------|-----2-4/6-4-----4---|-------------0-------|
e|-0---------------|-2-4-----------------|---------------------|

e|-----0--------7-----5-----4-----2--------------|
b|-------4------9-9---5-7---5-5---4-4-----0------|
g|-2/4-----4--------------------------------1----|
d|--------------------------------------------2--|
a|-----------------------------------------------|
e|------------0-----0-----0-----0-----2/4--------|

Verse1: E-C#m-A2-E
e|-------0-------|-----------|-----------7-----|------------|-------0-------|
b|---------0-----|-----------|-----5p4---5---5-|------------|---------0-----|
g|-----------1---|-----------|---------------4-|-----4------|-----2-----2---|
d|-----2-------2-|-----------|---6---------6---|-4/6---6-4\-|---2---------2-|
a|---2-----------|-----2-4/6-|-4-------4-------|------------|-0-------------|
e|-0-------------|-2-4-------|-----------------|------------|---------------|
Verse1 Ending
e|------------------|-------0---------------------|
b|------------------|---------0-------------------|
g|-----------4------|-----------1-----------------|
d|-----2-4/6---6-4\-|-----2-------2-1-1-1-2p1-----|
a|-2-4--------------|---2---------------------(2)-|
e|------------------|-0-------------0-0-0-0-------|

Verse2: Verse2 Ending
e|-------0---------------------------------|
b|---------0-------9-------7-------|
g|-----------1-------9-------8-----|
d|-----2-------2-------9-------9-----------|
a|---2-----------7-------6-----------------|
e|-0---------------------------------------|

Refrain:
e|---------4---------------2---------------0----------------------|
b|-----------4---------------2---------------0---------5----7-----|
g|-----6-------6-------4-------4-------2-------2--------0-----8---|
d|---6---6-------6---4---4-------4---2---2-------2-----6--------9-|
a|-4---------------2---------------0---------------5/7----6-------|
e|----------------------------------------------------------------|
(A2)
e|---------4---------------2-------------0-------0-----|
b|-----------4---------------2-------------0---0---0---|
g|-----6-------6-------4-------4-------2-----2-------2-|
d|---6---6-------6---4---4-------4---2-----------------|
a|-4---------------2---------------0-------------------|
e|-----------------------------------------------------|

Chorus:
e|-------0-------|---------------------7-|------------|-------0-------|
b|---------0-----|---------------5p2---5-|------------|---------0-----|
g|-----------1---|---------------2-------|-----4------|-----2-----2---|
d|-----2-------2-|-------------6---------|-4/6---6-4\-|---2---------2-|
a|---2-----------|-----2-4/6-4-------4---|------------|-0-------------|
e|-0-------------|-2-4-------------------|------------|---------------|
Chorus Ending
e|------------------|-----------------------|
b|------------------|-----------------------|
g|-----------4------|-------1-2p1-----------|
d|-----2-4/6---6-4\-|-----2-------(2)-------|
a|-2-4--------------|---2-------------------|
e|------------------|-0---------------------|

try to copy and paste it to note pad or whatever. i got this from somewhere. there is a small mistake in that but its up to you on how are you going to play it many thanks!

request copy

can you please send me a copy of 'minsan' tableture by true faith tnx's

guitar tab

hello,
pls give the tab of the song `nothing else matter` from metalica.
it would be my pleasure if u give the tab.pls pls pls...

Re: guitar tab

: hello,
: pls give the tab of the song `honestly by harem scarem.
: it would be my pleasure if u give the tab.pls pls pls...

need tablature harem scarem (honestly-acoustic)

i very like a honestly, i realy need tablature guitar harem scarem....

need to have a " honestly" tab by harem scarem

need to have a " honestly" tab by harem scarem

HELP!

Im looking for the song, I think its called The Blues, by Fuel. I need the sheet music for it! if you have it, I will trade you tab from Rent or Alanis Morrosette, or any MP3! thank you

Bob Dylan

I'm dying to find "Boots of Spanish Leather" tabs by Bob Dylan.

Re: Bob Dylan

viola!!!

From: Austin Roorda (aroorda@sciborg.uwaterloo.ca)

Boots of Spanish Leather
artist: Bob Dylan
album: Times they are a'changin'

Most of the tablature is here but some of the fills between
lines vary in the original recording. The most important
part is synching the high string with the alternating bass pattern.

G C/G G C/G G
|--------|--------|--------|--------|--------|
|--0----1|--1----0|--0----1|--1----0|--0----0|
|-----0--|-----0--|-----0--|-----0--|-----0--|
|--0---0-|--2---2-|--0---0-|--2---2-|--0---0-|
|--------|--------|--------|--------|--------|
|3---3---|3---3---|3---3---|3---3---|3---3---|

Em7 D7/F# G
|--------|--------|--------|--------|--------|--------|
|--0-----|--3----3|---0-0-0|---01---|--0----1|--1----0|
*|-----0-0|-----0--|--------|-2---2--|-----0--|-----0--|
*|--0---0-|--2---2-|--2---2-|--0---0-|--0---0-|--2---2-|
|--------|--------|--------|--------|--------|--------|
|3---3---|0---0---|0---0---|2---2---|3---3---|3---3---|

Well I'm sailin' away my own true love

|--------|--------|--------|--------|--------|
|--0-----|--3----3|---01---|--0----1|--1----0|
|-----0-0|-----0--|-2---2--|-----0--|-----0--|
|--0---0-|--2---2-|--0---0-|--0---0-|--2---2-|
|--------|--------|--------|--------|--------|
|3---3---|0---0---|2---2---|3---3---|3---3---|

I'm sailin' away ^ mornin'
in the

|--------|--------|--------|--------|--------|--------|
|--0-----|--3----3|--3-----|-1------|--0----1|--1----0|
|-----0-0|-----0--|-----0--|---0-2-2|-----0--|-----0--|
|--0---0-|--2---2-|--2---2-|--2---0-|--0---0-|--2---2-|
|--------|--------|--------|3-------|--------|--------|
|3---3---|0---0---|0---0---|----2---|3---3---|3---3---|

Is ^ somethin^send ^ across the sea
there I can you from

|--------|--------|--------|--------|---01---|--------|
|--0-----|--3----3|---01---|--0-----|-----3--|--0-----|
|-----0-0|-----0--|-2---2--|-----0-0|-2-----2|-----0-0|*
|--0---0-|--2---2-|--0---0-|--0---0-|--0---0-|--0---0-|*
|--------|--------|--------|--------|--------|--------|
|3---3---|0---0---|2---2---|3---3---|2---2---|3---3---|

From the place ^ I'll be landing?
where

verses:

Well I'm sailin away my own true love.
I'm sailin' away in the mornin'
Is there something I can bsend you from across the sea,
From the place where I'll be landin'?

No, there's nothing you can bring me my own true love.
There's nothing I wish to be ownin'.
Just carry yourself back to me unspoiled
from across that lonesome ocean.

Well I just though you might want something fine
made of silver or of golden
either from the mountains of Madrid
or the coast of Barcelona.

If I had the stars from the darkest night
and the diamonds from the deepest ocean,
I'd foresake them all for your sweet kiss,
for that's all I'm wishin' to be ownin'

That I might be gone a long old time,
and it's only that I'm askin'.
Is there something I can give you to remember me by,
To make your time more easy passin'?

Oh how can, how can you ask me again?
It only brings me sorrow.
For the same thing that I want from you today
I would want again tomorrow.

Well I got a letter on a lonesome day.
It was from her ship a'sailin'.
Sayin' "I don't know when I'll be comin' back again.
It depends on how I'm feelin'."

Well if you my love must think that a'way
I'm sure your mind is a'roamin'.
I'm sure your heart is not with me
but with the country where you're goin'.

So take heed, take heed of the Western wind.
Take heed of the stormy weather.
And yes, there's something you can send back to me;
SPANISH BOOTS OF SPANISH LEATHER.

: I'm dying to find "Boots of Spanish Leather" tabs by Bob Dylan.

Re: i realy want to have "HONESTLY" tablature by harem scarem

Pls. Give me the chords and tablature of Harem Scarems Honestly

Re: i realy want to have "HONESTLY" tablature by harem scarem

: Pls. Give me the chords and tablature of Harem Scarems Honestly
i would really love to have e'm.

thanks you Jesus christ

i realy like this web site... may god bless this web site

i realy want to have "HONESTLY" tablature by harem scarem

hope that you will respond to my resquest.! Thank you very much..!

Re: i realy want to have "HONESTLY" tablature by harem scarem

give a copy also. i reall like to play the acoustic version of honestly. thank you!

Re: i realy want to have "HONESTLY" tablature by harem scarem

I hope that you will respond to my resquest.!

Thank you very much..!

Re: i realy want to have "HONESTLY" tablature by harem scarem

Me too... Thanks...

Re: i realy want to have "HONESTLY" tablature by harem scarem

: hope that you will respond to my resquest.! Thank you very much..!yes how are you

Re: i realy want to have "HONESTLY" tablature by harem scarem

favor: guitar tab of honestly... fr. philippines

Re: i realy want to have "pagdating ng panahon" by aiza

: favor: guitar tab of honestly... fr. philippines

mp3

i want to study guitar trick

tom

Hello, please send me accoustic tabs to play my guitar.Thanks

Post new comment

The content of this field is kept private and will not be shown publicly.
CAPTCHA
This question is for testing whether you are a human visitor and to prevent automated spam submissions. Do not include any spaces in your answer.
Image CAPTCHA
Copy the characters (respecting upper/lower case) from the image.

Contact | Advertise | Contents | Privacy Policy | Forum

This site is published by Hitsquad Pty Ltd. Copyright © 1999 - 2017 , All Rights Reserved.