Super Guitar Chord Finder

Super Guitar Chord Finder

Advanced Easy to use Guitar Chord Finder

Super Guitar Chord Finder helps you learn, search for, analyze, and play guitar chords.

The Chord Analyzer shows you which notes are in the chord. It shows a chord diagram, showing open and muted strings.

You can click the Play button to hear the chord at normal or slow speed. It also plays the chord variations.

The Chord Analyzer also displays alternate chord names, and the chord construction. You can also display tab notation of the chord, and search on alternate chord names to find the original chord name.



Comment viewing options

Select your preferred way to display the comments and click "Save settings" to activate your changes.

Re: looking for the tab of more than i can say

: i need the tab of "more than i can say"
: thanks

Re: looking for the tab of more than i can say

: : i need the tab of "more than i can say"
: : thanks

PLease can somebosy send me the tabs of that song??!!!

Thanx!!!

chords to song for recording at home

hi,
i need the chords to "windmills of your mind",,i cant find them anywhere,,,i have a small home studio, and iv recorded hundreds of songs, but now i really need to do this one,,,PLESE!!!,,,if you can ,,,,get me those chords,,,,,,,thx bob hoehn

my band

i have a band and i need to git som infermation on how to git sum gigs

looking for a song chords

hi there I am fund of guitaring just started,
would you send me leo sayer more than I can say chords
thanx
hussam

Re: looking for a song chords

hi there! im wishing someone would bother to send me the lyrics and chordsof iris by googoo dolls.. thanks in advance!

looking for a song chords - iris by googoodolls

: hi there! im wishing someone would bother to send me the lyrics and chordsof iris by googoo dolls.. thanks in advance!

asap pls...

Re: looking for a song chords

: hi there! im wishing someone would bother to send me the lyrics and chordsof iris by googoo dolls.. thanks in advance! asap... i need it by tomorrow

Re: looking for a song chords

: hi there I am fund of guitaring just started,
: would you send me leo sayer more than I can say chords
: thanx
: hussam

Re: looking for a song chords

: : can you give me the fucking chords for leo sayers' 'one man band' as i'm too pissed to find them myself

Re: looking for a song chords and tab of i'll be by edwin mccain

pls? im looking for a song,chords and tab of i'll be by edwin mccain

Re: looking for a song chords and tab of i'll be by edwin mccain

: pls? im looking for a song,chords and tab of i'll be by edwin mccain,passenger seat by stephen speaks,iris by goo goo dolls,amazing by aerosmith and cryin by aerosmith,later by fra lippo lippi.... pls..... send me the following above i want.... thanks....

Re: looking for a song chords and tab of i'll be by edwin mccain

: : pls? im looking for a song,chords and tab of i'll be by edwin mccain,passenger seat by stephen speaks,iris by goo goo dolls,amazing by aerosmith and cryin by aerosmith,later by fra lippo lippi,rmedy by jason marz.... pls..... send me the following above i want.... thanks....

Re: looking for a song chords and tab of i'll be by edwin mccain

i found tab for jason marz remedy...
www.tabalorium.com/yabs/17200.html
hope this helps you :)

Re: looking for a song chords and tab of i'll be by edwin mccain

: i found tab for jason marz remedy...
: www.tabalorium.com/yabs/17200.html
: hope this helps you :)

Re: looking for a song chords and tab of curb side Prophet by Jason Marz

: : i found tab for jason marz remedy...
: : www.tabalorium.com/yabs/17200.html
: : hope this helps you :)

Re: looking for a song chords and tab of i'll be by edwin mccain

: pls? im looking for a song,chords and tab of i'll be by edwin mccain

Re: looking for a song chords and tab of i'll be by edwin mccain

: : pls? im looking for a song,chords and tab of i'll be by edwin mccain

looking for a song chords and tab of i'll be by edwin mccain

Please. . . im looking for a song,chords and tab of i'll be by edwin mccain.

Re: looking for a song chords and tab of i'll be by edwin mccain

: Please. . . im looking for a song,chords and tab of i'll be by edwin mccain and I want the acoustic version.thanx by michael

Re: looking for a song chords

hi there could you find me the chords to Shakira's; Underneath your clothes. I'd be very grateful! Mail me!!!
Thanx x

Genesis

Hi does nayone know the chords to "More fool me" from selling england album??

when I need you chords leo sayer

when I need you chords leo sayer

This popular thread has been given its own page : when I need you chords leo sayer

Re: looking for a song chords

: hi there I am fund of guitaring just started,
: would you send me leo sayer more than I can say chords
: just send me any easy chords as my first lesson

Re: looking for a song chords

: hi there I am fund of guitaring just started,
: would you send me leo sayer more than I can say chords
: thanx
: hussam

Re: looking for a song chords

: : hi there I am fund of guitaring just started,
: : would you send me any song chords
: : thanx
: : betty

Re: looking for a song chords

hi there i really love guitars. i was just hoping if you can get me the chords of "uptown girl" by westlife

looking for a song chords

hey-
i arrange songs for an acappella singing group.
could you send the chords for george michael, "Faith?"
thanks
-ash

Re: looking for a song chords

Please send me the guitar chords to "God Speed" from the Dixie Chicks. Thanks, mel

Re: looking for a song chords

: hey-
: i arrange songs for an acappella singing group.
: could you send the chords for :
-"swing low,sweet chariot" (IIIrd Tyme Out)
-"winter love"(The Crystalairs)
-"white christmas"(unknow)

: thanks
: -ash

Re: looking for a song chords

: hey-
could you also send blackstreet's "no diggity?"
thanks again
ash

looking for a song chords

hello i am a very huge fan of the band CREED so i am hoping and requesting a song chord in their album "HUMAN CLAY" it's very king of you if you give me all in that said album cause i liked it all, and i want to learn it all so i can sing it too with a guitar, but it's ok if you could give me some Thanks,.{"_"}.,

Re: looking for a song chords

: hello i am a very huge fan of the band CREED so i am hoping and requesting a song chord in their album "HUMAN CLAY" it's very kind of you if you give me all in that said album cause i liked it all, and i want to learn it all so i can sing it too with a guitar, but it's ok if you could give me some Thanks,.{"_"}.,

Re: looking for a song chords

hi there,i was hoping u can help me find the guitar chords of the song TEENAGE DIRTBAG by wheatus.i've tried looking for it,but all i got is the tab w/c i cant read. hope u can help me.THANX!

Re: looking for a song chords

: hi there,i was hoping u can help me find the guitar chords of the song we've got tonight by ronan keating and lulu

Re: please send it as soon as possible

: hi there,i was hoping u can help me find the guitar chords of the song HOld my hand by hootie and the blow fish .i've tried looking for it,but no luck..if u could send it to me as soon as possible..thankx

Re: looking for a song chords

Hey there! i was just wondering if anyone had or knows the chords for Picture by Kid Rock ft. Sheryl Crow. I'd love to learn it! Thanks a lot

Re: responding with chords for Picture

Hello Laura,

Try using G7 C Major and D, go back to C then to G. The entire song consists of the above mentioned chords. When you get to "i put your picture away" use E minor, then back to G, then D, then C, then G. These are the basic chrods

Hope this helps!

Let me know how you did.

Re: looking for a song chords

: hi there,i was hoping u can help me find the guitar chords of the song TEENAGE DIRTBAG by wheatus.i've tried looking for it,but all i got is the tab w/c i cant read. hope u can help me.THANX!

Re: looking for a song chords

Hi,
I found the chords for Teenage Dirtbag on this site:
http://members.tripod.co.uk/rboath/guitar.html
Simple chords, no tabs - just the way I like it.
Regards
Conor

Re: looking for a song chords

: hi there,i was hoping u can help me find the guitar chords of the song TEENAGE DIRTBAG by wheatus.i've tried looking for it,but all i got is the tab w/c i cant read. hope u can help me.THANX!

Re: looking for a song chords by sinatra

Re: looking for a song chords

: hi there,i was hoping u can help me find the guitar chords of the song TEENAGE DIRTBAG by wheatus.i've tried looking for it,but all i got is the tab w/c i cant read. hope u can help me.THANX!

#-----------------------------PLEASE NOTE-------------------------------------#
#This OLGA file is the author's own work and represents their interpretation #
#of the song. You may only use this file for private study, scholarship, or #
#research. Remember to view this file in Courier, or some other monospaced #
#font. See http://www.olga.net/faq/ for more information. #
#-----------------------------------------------------------------------------#

Date: Thu, 18 Jan 2001 21:34:58 -0500
From: T-BONE <usermanager@excite.com> (by way of cathal woods)
Subject: w/wheatus/teenage_dirtbag.tab

Wheatus
Teenage Dirtbag - Movie Soundtrack - "Loser"

Tabbed by Terry Ellis
ALL ORIGINAL WORK
There is one file for this song, however, I think its just a little wrong,
also its all chords and mine is all tab, in comparison, we both think the
outro is as we have both written it. My file is all tab where as the other
file is all chords
e-mail comments and suggestions to:
UserManager@mailexcite.com
Date - Wednesday November 29, 2000

Now, Ive seen the tab for this song, and it's kinda basic and kinda worng,
not being rude or anything, but this is the real way in which the song
goes....Ive been playing for 5 year and Im in a band, so when I looked at
the tab and had trouble following it, I knew the changes had to be made so
here goes

Standard Tuning - (E A D G B E)

m - palm mute
/ - slide

Intro - Now as far as I can tell, the bass plays the chorde's bass note
while the acoustic guitar plays the (B) & (E) stings open and muting the
rest

Verse 1

Her name is Noel, I have a dream about her............

E---0------|
B---0------|
G----------|
D----------|

Chorus

Cause Im just a teenage dirtbag baby...................

DISTORTION

E-------------------|---------------|
B-------------------|---------------|
G--------2--2--4--4-|---------------|
D--2--2--2--2--4--4-|--------6------| (X3)
A--2--2--0--0--2--2-|----2/4-----6--|
E--0--0-------------|----------4----|

E-------------------|-----------------------------|
B-------------------|-----------------------------|
G--------2--2--4--4-|-----------------------------|
D--2--2--2--2--4--4-|--------6-------2---4--------| (X1)
A--2--2--0--0--2--2-|----2/4-----6-0---2----------|
E--0--0-------------|----------4-----------0------|

Verse 2

Her boyfriends a dick, he brings a gun to school..........

E---0------|
B---0------|
G----------|
D----------|

Chorus

Cause Im just a teenage dirtbag baby................

DISTORTION

E-------------------|---------------|
B-------------------|---------------|
G--------2--2--4--4-|---------------|
D--2--2--2--2--4--4-|--------6------| (X3)
A--2--2--0--0--2--2-|----2/4-----6--|
E--0--0-------------|----------4----|

E-------------------|-----------------------------|
B-------------------|-----------------------------|
G--------2--2--4--4-|-----------------------------|
D--2--2--2--2--4--4-|--------6-------2---4--------| (X1)
A--2--2--0--0--2--2-|----2/4-----6-0---2----------|
E--0--0-------------|----------4-----------0------|

Bridge

Yeah....dirtbag.....she doesn't know what she's missing
Yeah....dirtbag.....she doesn't know what she's missing

E------------------|-----------------------------|
B------------------|-----------------------------|
G------------------|-----------------------------|
D--2-2--7--2-2--7--|--2-2--7------6-------2---4--| (X2)
A--2-2--7--2-2--7--|--2-2--7--2/4-----6-0---2----|
E--0-0--5--0-0--5--|--0-0--5--------4------------|

Man I feel like mold, it's prom night and I am lonely............

Guitar 1

E-0-----0-----0------0-----0----0----0----0-----0-----0-----0-----0-----0----
B-0-----0-----0------0-----0----0----0----0-----0-----0-----0-----0-----0----
G----------------------------------------------------------------------------
D----------------------------------------------------------------------------
A---------2-2----------0-0--------2-2-------0-0---------2-2---------0-0------
E---0-0---------0-0----------0-0-------0-0---------0-0--------0-0---------0-0

0-----0-----0-----0------0-----0-----0-------|
0-----0-----0-----0------0-----0-----0-------|
---------------------------------------------|
---------------------------------------------|
--2-2---------0-0----------2-2---------0-0---|
-------0-0-----------0-0---------0-0---------|

E--0----0----0----0----0----0----0----0----|
B--0----0----0----0----0----0----0----0----|
G------------------------------------------|
D------------------------------------------|
A---4-4--0-0--2-2--2-2--4-4--0-0--2-2--2-2-|
E------------------------------------------|

She said, Ive got two tickets to Iron Maiden baby....................

m m m m m m m m m m m m m mmm
E----------------------------|----------------------|
B----------------------------|----------------------|
G-----------2-2-2-2--4-4-4-4-|----------------------|
D--2-2-2-2--2-2-2-2--4-4-4-4-|-----6----------------| (X3)
A--2-2-2-2--0-0-0-0--2-2-2-2-|-2/4----6-------------|
E--0-0-0-0-------------------|------4---------------|

m m m m m m m m m m m m
E----------------------------|------------------------|
B----------------------------|------------------------|
G-----------2-2-2-2--4-4-4-4-|------------------------|
D--2-2-2-2--2-2-2-2--4-4-4-4-|-----6------2---4-------| (X1)
A--2-2-2-2--0-0-0-0--2-2-2-2-|-2/4----6-0---2---------|
E--0-0-0-0-------------------|------4-----------------|

Bridge

Yeah....dirtbag.....she doesn't know what she's missing
Yeah....dirtbag.....she doesn't know what she's missing...%$#@&#&#

E------------------|-----------------------------|
B------------------|-----------------------------|
G------------------|-----------------------------|
D--2-2--7--2-2--7--|--2-2--7------6-------2---4--| (X2)
A- 2-2--7--2-2--7--|--2-2--7--2/4-----6-0---2----|
E--0-0--5--0-0--5--|--0-0--5--------4------------|

Outro

E------X-----X-----X-----X|-----X-----X-----X---------------|
B------X-----X-----X-----X|-----X-----X-----X---------------|
G------X-4-4-X-----X-2-2-X|-----X-4-4-X-----X---------------|
D--2-2-X-4-4-X-2-2-X-2-2-X|-2-2-X-4-4-X-2-2-X-7--6--4--6--2-|
A--2-2-X-2-2-X-2-2-X-0-0-X|-2-2-X-2-2-X-2-2-X-7--6--4--6--2-|
E--0-0-X-----X-0-0-X-----X|-0-0-X-----X-0-0-X-5--4--2--4--0-|

Re: looking for a song chords

 looking for a song chords

This popular thread has been given its own page : Re: looking for a song chords

Re: looking for a song chords

: hello i am a very huge fan of the band CREED so i am hoping and requesting a song chord in their album "HUMAN CLAY" it's very king of you if you give me all in that said album cause i liked it all, and i want to learn it all so i can sing it too with a guitar, but it's ok if you could give me some Thanks,.{"_"}.,

Re: looking for a song chords

: Heya, I'm just gettign used to playing the guitar (12 mnths or so) and I write my own stuff, but I was hopping to play recent covers that people would recognise. I'm looking for mostly acustic stuff and I've found the lyrics but the chords are harder to find. John Mayer, David Franj, Avril Lavign, Michelle Branch, Counting Crows, what ever. I just need to find some simpler charts to play. Anything would be much apprieciated... Thx

Re: looking for a song chords

: hi there I really need this chord for my project
: would you send me a "Leaving Yesterday Behind" chords
: thanks
: Roger

Re: longtall glacces. Leo Sayer

: : hi there I really need this chord for my project
: : would you send me a "Leaving Yesterday Behind" chords
: : thanks
: : Roger

Re: looking for a song chords

: : hi there I really need this chord for my project
: : would you send me a "yesterday" beattles chords
: : thanks
: : Roger

Re: looking for a song chords

: : : hi there I really need this chord for my project
: : : would you send me a "yesterday" beattles chords
: : : thanks
: : : Stojce

Post new comment

The content of this field is kept private and will not be shown publicly.
CAPTCHA
This question is for testing whether you are a human visitor and to prevent automated spam submissions. Do not include any spaces in your answer.
Image CAPTCHA
Copy the characters (respecting upper/lower case) from the image.

Contact | Contents | Privacy Policy | Forum

This site is published by Hitsquad Pty Ltd. Copyright © 1999 - 2021 , All Rights Reserved.

Affiliate Notice: As an Amazon Associate we earn from qualifying purchases.