Re: busco el requinto de las mañanitas

Advertisement
Posted by alma on Fri, 04/11/08 - 17:09:30.

: : : : : : : busco notas de guitarra de visente fernandez, Temerarios,Tucanes,y las mananitas, y unos requinteos.por favor. Gracias

Comment viewing options

Select your preferred way to display the comments and click "Save settings" to activate your changes.

Re: busco el requinto de las mañanitas

: : : : : : : : busco notas de guitarra de visente fernandez, Temerarios,Tucanes,y las mananitas, y unos requinteos.por favor. Gracias

Re: busco el requinto de las mañanitas

busco mañanitas en requiento

Re: YO TENGO ESTE REQUINTO DE LAS MAÑANITAS

 YO TENGO ESTE REQUINTO DE LAS MAÑANITAS

This popular thread has been given its own page : Re: YO TENGO ESTE REQUINTO DE LAS MAÑANITAS

io tengo este requinto

e-1-0-----------0-1-1-0-1-1-3-5-5-3-5-...
B-3-1-3-3-2-3-3-1-3-3-1-3-3-5-6-6-5-6-...
G-----4-4-3-4-4-----------------------...
D-------------------------------------...
A-------------------------------------...
E-------------------------------------...

e-1-3-5--7-7-5-5-3-3-5-5-3-3-1-1-0----...
B-3-5-6--8-8-6-6-5-5-6-6-5-5-3-3-1----...
G-------------------------------------...
D-------------------------------------...
A-------------------------------------...
E-------------------------------------...
--- Esto es rápido -----

e-------------------------------------...
B-------------------------------0-1---...
G---------------------0-0---0-2-------...
D---------------2-3-4-----4-----------...
A-----0-0-2-2-3-----------------------...
E-3-3---------------------------------...
---- esta parte es rápida ----------

Re: busco el requinto de las mañanitas

: : : : : : : : busco notas de guitarra de visente fernandez, Temerarios,Tucanes,y las mananitas, y unos requinteos.por favor. Gracias

los requintos se saca solos

nesesitas practicar requintos faciles y luego sacar el de las mañanitas

Post new comment

The content of this field is kept private and will not be shown publicly.
CAPTCHA
This question is for testing whether you are a human visitor and to prevent automated spam submissions. Do not include any spaces in your answer.
Image CAPTCHA
Copy the characters (respecting upper/lower case) from the image.

Contact | Advertise | Contents | Privacy Policy

This site is published by Hitsquad Pty Ltd. Copyright © 1999 - 2014 , All Rights Reserved.