guitar tabs and chords of ek hasina thi

Posted by Abhineet on Sun, 06/03/07 - 18:20:45.

plz send me guitar tabs and chords of song ek hasina thi frm movie karz



Comment viewing options

Select your preferred way to display the comments and click "Save settings" to activate your changes.

try it ek hasina thi for beginners

e1= 2,0,2,3 repeat , 2,0,2,3,0

Re: guitar tabs and chords of ek hasina thi

: plz send me guitar tabs and chords of song ek hasina thi frm movie karz

Re: guitar tabs and chords of abhi kuch dino se

: : plz send me guitar tabs and chords of song abhi kuch dino se moviedil to bachha hai ji

Re: guitar tabs and chords of ek hasina thi

: plz send me guitar tabs and chords of song ek hasina thi frm movie karz

Re: guitar tabs and chords of ek hasina thi

Here is the tabs for ek hasina thi....

E--------------------------------------------------------------------------------------------------
B--1--7-----5--7-----8--------7-----5--7-----8--------7-----5--7-----8-----5-----------5-----5-----
G--------------------------------------------------------------------------------------------------
D--------------------------------------------------------------------------------------------------
A--------------------------------------------------------------------------------------------------
E--------------------------------------------------------------------------------------------------

E--------------------------------------------------------------------------------------------------
B--2--5-----7-----5--4--------4-----5-----7--7--------5--------5-----------------------0-----0-----
G--------------------------------------------------------------------------------------------------
D--------------------------------------------------------------------------------------------------
A--------------------------------------------------------------------------------------------------
E--------------------------------------------------------------------------------------------------

E--------------------------------------------------------------------------------------------------
B--1--3-----3--------1--1-----------------------------------1-----1-----0--0--------------0-----0--
G--------------------------------------------2-----2-----2-----------------------------------------
D--------------------------------------------------------------------------------------------------
A--------------------------------------------------------------------------------------------------
E--------------------------------------------------------------------------------------------------

E--------------------------------------------------------------------------------------------------
B-----1--3-----3-----1-----1-----------5-----1--------------------------1--1--0-----0--------------
G--------------------------------------------------------2-----2-----2-----------------------------
D--------------------------------------------------------------------------------------------------
A--------------------------------------------------------------------------------------------------
E--------------------------------------------------------------------------------------------------

E--------------------------------------------------------------------------------------------------
B--------7-----5--7-----8--------7-----5--7-----8--------7-----5--7-----8-----5-----------5-----5--
G--------------------------------------------------------------------------------------------------
D--------------------------------------------------------------------------------------------------
A--------------------------------------------------------------------------------------------------
E--------------------------------------------------------------------------------------------------

E--------------------------------------------------------------------------------------------------
B-----2--5-----7-----5--4--------4-----5-----7--7--------5--------5--------------------------------
G--------------------------------------------------------------------------------------------------
D--------------------------------------------------------------------------------------------------
A--------------------------------------------------------------------------------------------------
E--------------------------------------------------------------------------------------------------

Re: guitar tabs and chords of ek hasina thi

: plz send me guitar tabs and chords of song ek hasina thi frm movie karz on my id

Re: guitar tabs and chords of ek hasina thi

: plz send me guitar tabs and chords of song ek hasina thi frm movie karz

Re: guitar tabs and chords of ek hasina thi

: : plz send me guitar tabs and chords of song ek hasina thi frm movie karz

Re: guitar tabs and chords of ek hasina thi

: : : plz send me guitar tabs and chords of song ek hasina thi frm movie karz
plz

Re: guitar leads and chords of ek hasina thi

: plz send me guitar leads and chords of song ek hasina thi frm movie karz

Re: guitar tabs and chords of ek hasina thi

: plz send me guitar notes on fret board of song ek hasina thi frm movie karz

Re: guitar tabs and chords of ek hasina thi

: plz send me guitar tabs and chords of song ek hasina thi frm movie karz, i am half through....bt am nt able to complete it

Re: guitar notes on stings of ek hasina thi

: plz send me guitar notes on stings of song ek hasina thi frm movie karz

tabs

hey lady i hv got a vry much beginner tabs fo dis song.......cz i m a beginner my self.......hpe its right....bt plz try dis n let me knw wedr its rit o not...plzz...
G--2-0-2-3----repeat x2.....0-0-0-0-0-0-0
D---------------------------------------------

G-0-----0--2----------0-0--0h2--0h2--0h2---0-0-0-0-0-0-0
D----2----------4--4--

Re: guitar tabs and chords of ek hasina thi

: plz send me <b style="color:white;background-color:#880000">guitar</b> tabs and chords of song <b style="color:black;background-color:#a0ffff">ek</b> <b style="color:black;background-color:#99ff99">hasina</b> <b style="color:black;background-color:#ff9999">thi</b> frm movie karz

Re: guitar tabs and chords of ek hasina thi

: plz send me guitar tabs and chords of song ek hasina thi frm movie karz

Re: guitar tabs and chords of ek hasina thi

: : plz send me guitar tabs and chords of song ek hasina thi frm movie karz

Re: guitar tabs and chords of ek hasina thi

: : : plz send me guitar tabs and chords of song ek hasina thi frm movie karz

(1/2, 1/0, 1/2, 1/3) 3 timz and 1/0

hope this helps

if any body wants chords of ek hasina thi so cantact me

i will give u how much chords of any kind of song

Re: if any body wants chords of ek hasina thi so cantact me

: i will give u how much chords of any kind of song ek hasena thi

if any body wants chords of ek hasina thi so cantact me

i will give u how much chords of any kind of song

if any body wants chords of ek hasina thi so cantact me

i will give u how much chords of any kind of song

Re: guitar tabs and chords of ek hasina thi

: plz send me guitar tabs and chords of song ek hasina thi frm movie karz

Re: guitar tabs and chords of ek hasina thi

: : plz send me guitar tabs and chords of song ek hasina thi frm movie karz in the email id <darshanperiwal@gmail.com>

Re: guitar tabs and chords of ek hasina thi

: plz send me guitar tabs and chords of song ek hasina thi frm movie karz

Re: guitar tabs and chords of ek hasina thi

: : hi mast haikarz

Re: guitar tabs and chords of ek hasina thi

: plz send me guitar chords of song ek hasina thi frm movie karz

Re: guitar tabs and chords of ek hasina thi

: plz send me guitar tabs and chords of song ek hasina thi frm movie karz

Re: guitar tabs and chords of ek hasina thi

: : plz send me guitar tabs and chords of song ek hasina thi frm movie karz

**** off and die!!!!

Re: guitar tabs and chords of ek hasina thi

: : : plz send me guitar tabs and chords of song ek hasina thi frm movie karz

:
: **** off and die!!!!

Re: guitar tabs and chords of ek hasina thi

: : : plz send me guitar tabs and chords of song ek hasina thi frm movie karz

:
: **** off and die!!!!

Re: guitar tabs and chords of ek hasina thi

: : : plz send me guitar tabs and chords of song ek hasina thi frm movie karz

:
: **** off and die!!!!

Re: guitar tabs and chords of ek hasina thi

: : : plz send me guitar tabs and chords of song ek hasina thi frm movie karz

:
: **** off and die!!!!

Re: guitar tabs and chords of ek hasina thi

: plz send me guitar music played by rishi when at hospital in movie Karz....Plzzzzzzzz (ek hasina thi frm movie karz)

Re: guitar tabs and chords of ek hasina thi

: plz send me guitar tabs and chords of song ek hasina thi frm movie karz

Re: guitar tabs and chords of ek hasina thi

plz send me guitar tabs and chords of song ek hasina thi frm movie karz

Re: guitar tabs and chords of ek hasina thi

: plz send me guitar tabs and chords of song ek hasina thi frm movie karz

Re: guitar tabs and chords of jai ho...

: : plz send me guitar tabs and chords of song jai ho from movie slumdog millinear

Re: guitar leads and chords of ek hasina thi

: plz send me guitar leads and chords of song ek hasina thi frm movie old karz

Re: guitar leads and chords of ek hasina thi

: : plz send me guitar leads and chords of song ek hasina thi from movie old karzz

Re: guitar music of ek hasina thi

: : : plz send me guitar remix music and chords of song ek hasina thi from movie old karzz
note: i want akshay khanna's incoming cell fone ringtone from movie naqaab 2007

Re: Plz send me only chords for ek hasina thi frm KARZ

: plz send me guitar tabs and chords of song ek hasina thi frm movie karz

guitar tabs and chords of ek hasina thi

: plz send me guitar tabs and chords of song ek hasina thi frm movie karz

Re: guitar tabs and chords of ek hasina thi

: : plz send me guitar tabs and chords of song ek hasina thi frm movie karz

Re: guitar tabs and chords of ek hasina thi

giutar cord of ek hasina thi

Re: guitar tabs and chords of ek hasina thi

: : plz send me guitar tabs and chords of song ek hasina thi frm movie karz

Re: guitar tabs and chords of ek hasina thi

: : : plz send me guitar tabs and chords of song ek hasina thi frm movie karz

Re: guitar tabs and chords of ek hasina thi

: : : : plz send me guitar tabs and chords of song ek hasina thi frm movie karz on u.gupte12@gmail.com
regards,
ugupte

Re: guitar tabs and chords of ek hasina thi

: : plz send me guitar tabs and chords of song ek hasina thi frm movie karz

guitar tabs and chords of ek hasina thi

plz send me guitar tabs and chords of song ek hasina thi frm movie karz @ sweetpoem@gmail.com

Post new comment

The content of this field is kept private and will not be shown publicly.
CAPTCHA
This question is for testing whether you are a human visitor and to prevent automated spam submissions. Do not include any spaces in your answer.
Image CAPTCHA
Copy the characters (respecting upper/lower case) from the image.

Contact | Contents | Privacy Policy | Forum

This site is published by Hitsquad Pty Ltd. Copyright © 1999 - 2019 , All Rights Reserved.

Affiliate Notice: As an Amazon Associate we earn from qualifying purchases.