Free Sheet Music

Locate thousands of free sheet music and guitar tablature downloads, lessons, tips, and articles. Many instruments, many musical styles.

Locate thousands of free sheet music downloads, guitar tabs, lessons, articles, and tips. Many instruments, many musical styles.

Comment viewing options

Select your preferred way to display the comments and click "Save settings" to activate your changes.

Blink 182

If any1 has any sheets for the enema of the state or take of your pants and jacket albums for guiatar, plz send them to me! thanx and keep playin all

Re: Blink 182

What's my Age Agian?
Enema of the State

--------------------------------------------------------------------------------

CHORDS
F# C# D# B
|--------------|
|--------------|
|----6--8--4---|
|-4--6--8--4---|
|-4--4--6--2---|
|-2------------|
WHAT'S MY AGE AGAIN?
e------------------------------------------------------------|
b----11-----11-----11------11-----11-----11-----11------11---|
D--11--11-11--11-11--11--11--11-11--11-11--11-11--11--11--11-|
G-9----------------------------9-----------------------------|
A--------9----------------------------9----------------------|
E---------------9------11--------------------9------11-------|
G------------------------------------------------------------|
D------------------------------------------------------------|
A------------------------------------------------------------|
E------------------------------------------------------------|
+=+=+=+=+=+=+=+=+=+=+=+=+=+=+=+=+=+=+=+=+=+=+=+=+=+=+=+=+=+=+=+=
e------------------------------------------------------------|
b----11-----11-----11------11-----11-----11-----11------11---|
D--11--11-11--11-11--11--11--11-11--11-11--11-11--11--11--11-|
G-9----------------------------9-----------------------------|
A--------9----------------------------9----------------------|
E---------------9------11--------------------9------11-------|
G------------------------------------------------------------|
D------------------------------------------------------------|
A-222222--------444444446666666222222--------444444446666666-|
E-------22222222---------------------22222222----------------|
+=+=+=+=+=+=+=+=+=+=+=+=+=+=+=+=+=+=+=+=+=+=+=+=+=+=+=+=+=+=+=+=
e------------------------------|
b----11-----11-----11------11--|
D--11--11-11--11-11--11--11--11|
G-9----------------------------|
A--------9---------------------|
E---------------9------11------|
G------------------------------|
D------------------------------|
A-222222--------444444446666666|
E-------22222222---------------|
I took her out, it was friday night, I wore cologne to get the feeling right We started makeing out and she took off my pants,
+=+=+=+=+=+=+=+=+=+=+=+=+=+=+=+=+=+
e------------------------------|
b----11-----11-----11-----11---|
D--11--11-11--11-11--11-11--11-|
G-9----------------------------|
A--------9---------------------|
E---------------9------9-------|
G-------------------------------|
D-------------------------------|
A2222222--------444444444444444-|
E-------22222222----------------|
But then i turned on the tv
+=+=+=+=+=+=+=+=+=+=+=+=+=+=+=+=+=+
e----------------|
b----11-----11---|
D--11--11-11--11-|
G-9------9-------|
A----------------|
E----------------|
G----------------|
D----------------|
A-22222222222222-|
E----------------|
And that's about the time she
+=+=+=+=+=+=+=+=+=+=+
e--------------|
b--------------|
D----66X88x666-|
G-44X66X88x666-|
A-44X44X66x444-|
E-22X----------|
G--------------|
D--------------|
A----444666444-|
E-222----------|
Walked away from me nobody likes you when your Twenty-three and I'm still more amused by TV shows, what the hell is ADD
+=+=+=+=+=+=+=+=+=
e-----------------|
b-----------------|
D----66X888888666-|
G-44X66X888888666-|
A-44X44X666666444-|
E-22X-------------|
G-----------------|
D-----------------|
A----444666666444-|
E-222-------------|
My friends say I should act my age, whats my age again, whats my age again?
+=+=+=+=+=+=+=+=+=+=+=+=+=+=+=+=+
e------------------------------|
b----11-----11-----11------11--|
D--11--11-11--11-11--11--11--11|
G-9----------------------------|
A--------9---------------------|
E---------------9------11------|
G------------------------------|
D------------------------------|
A-222222--------444444446666666|
E-------22222222---------------|
+=+=+=+=+=+=+=+=+=+=+=+=+=+=+=+=+=+=+
e------------------|
b------------------|
D-4444----66668888-|
G-4444444466668888-|
A-2222444444446666-|
E-----2222---------|
|+-+-+-+p.m+-+-+-+-|
G------------------|
D------------------|
A-2222----44446666-|
E-----2222---------|
And later on, on the drive home, I called her mom from a pay phone I said was the cops, and your husbands in jail,
+=+=+=+=+=+=+=+=+=+=++=+=+=+=+=+=+=+=
e------------------|
b------------------|
D-4444----66666666-|
G-4444444466666666-|
A-2222444444444444-|
E-----2222---------|
|+-+-+-+p.m+-+-+-+-|
G------------------|
D------------------|
A-2222----44444444-|
E-----2222---------|
The state looks down on sodomy
+=+=+=+=+=+=+=+=+=+=+=+=+=+=+=+=+=+=
e----------|
b----------|
D-44444444-|
G-44444444-|
A-22222222-|
E----------|
|+-+p.m-+-+|
G----------|
D----------|
A-22222222-|
E----------|
And that's about the time that bitch
+=+=+=+=+=+=+=
Hung up on me nobody likes you when your Twenty-three and I'm still more amused by Prank phone calls what the Hell is caller Id My friends say I should act my age, whats my age again, whats my age again?
+=+=+=+=+=+=+=+=+=+=+=+=+=+=+=+=+=+=
e-------------------------------|
b--11-----11-------11-----11----|
G-----11-----11-------11-----11-|
D-9---------------9-------------|
A-------------------------------|
E-------------------------------|
G----------------------------------|
D---8--8-8--6--6-6--4--4-4--6--6-6-|
A-66-66-6-44-44-4-22-22-2-44-44-4--|
E----------------------------------|
+=+=+=+=+=+=+=+=+=+=+=+=+=+=+=+=+=+=
e---------------------------------|
b---------------------------------|
G---------------------------------|
D-----8H9-----8H9-----8H9-----8H9-|
A-999-----999-----999-----999-----|
E---------------------------------|
G----------------------------------|
D---8--8-8--6--6-6--4--4-4--6--6-6-|
A-66-66-6-44-44-4-22-22-2-44-44-4--|
E----------------------------------|
+=+=+=+=+=+=+=+=+=+=+=+=+=+=+=+=+=+=
e----------------------------------|
b----------------------------------|
G----11------11------11------11----|
D--8---8H9-8---8H9-8---8H9-8---8H9-| *2
A-9-9-----9-9-----9-9-----9-9------|
E----------------------------------|
G----------------------------------|
D---8--8-8--6--6-6--4--4-4--6--6-6-|
A-66-66-6-44-44-4-22-22-2-44-44-4--| *2
E----------------------------------|
And that's about the time she
+=+=+=+=+=+=+=+=+=+=+=+=+=+=+=+=+=+=
Walked away from me, nobody likes you when your Twenty-three and you still act like your in Freshmen year what the hell is wrong with me My friends say I should act my age, whats my age again whats my age again? That's about the time she e-------------------------|
b----11-----11------11----|
D--11--11-11--11--11--11--|
G-----------------------9-|
A-9-----------------------|
E--------9-------11-------|
e---------------------------|
b---------------------------|
D--------66X-----88X----444-|
G-44X----66X-----8X8----444-|
A-44X----44X-----66X----222-|
E-22X-----------------------|
G------------------------------|
D------------------------------|
A--------444444446666666444444-|
E-2222222----------------------|-
Please stay with me-Broke up with me no one should take themselves so -Please stay with me- Seriously with so many years I have to -Please stay with me- Fall in line why would you wish that on me?-Please stay with me- e---------------------------------------|
b----11-----11------11------11-----11---|
D--11--11-11--11--11--11--11--11-11--11-|
G---------------------------------------|
A-9-------------------------------------|
E--------9-------11-----11------9-------|
e---------------------------------------|
b---------------------------------------|
D--------66X-----8888888888888886666666-|
G-44X----66X-----8888888888888886666666-|
A-44X----44X-----6666666666666664444444-|
E-22X-----------------------------------|
G---------------------------------------|
D---------------------------------------|
A--------444444466666666666666664444444-|
E-2222222-------------------------------|
I never want to act my age what's my age again, what's my age again? What's my age again? +=+=+=+=+=+=+=+=+=+=+=+=+=+=+=+=+=+=

Re: Blink 182

Anthem
Enema of the State
--------------------------------------------------------------------------------
Rythm Figure 1
E|--------------------------------------------------------------------------|
B|-------------------------------------------------5-5-5-5-5----------------|
G|-4-4-4-4-4---4-4-4-4-4---4-4-4-4-4---4-4-4-4-4---4-4-4-4-4----------------|
D|-4-4-4-4-4---4-4-4-4-4---4-4-4-4-4---4-4-4-4-4---2-2-2-2-2---4-4-4-4-4----|
A|-2-2-2-2-2---2-2-2-2-2---2-2-2-2-2---2-2-2-2-2---2-2-2-2-2---4-4-4-4-4----|
E|-------------------------------------------------------------2-2-2-2-2----|
E|--------------------------------|
B|-5-5-5-5-5----------------------|
G|-4-4-4-4-4----------------------|
D|-2-2-2-2-2---4-4-4-4-4----------|
A|-2-2-2-2-2---4-4-4-4-4----------|
E|-------------2-2-2-2-2----------|
Second Guitar
E|---------------------------------------------------------------------------------------------|
B|---------------------------------------------------------------------------------------------|
G|-4-4-4-4-4---4-4-4-4-4---8-8-8-8-8---8-8-8-8-8---9-9-9-9-9---6-6-6-6-6---9-9-9-9-9--6-6-6-6-6|
D|-x-x-x-x-x---x-x-x-x-x---x-x-x-x-x---x-x-x-x-x---x-x-x-x-x---x-x-x-x-x---x-x-x-x-x--x-x-x-x-x|
A|-2-2-2-2-2---2-2-2-2-2---6-6-6-6-6---6-6-6-6-6---7-7-7-7-7---4-4-4-4-4---7-7-7-7-7--4-4-4-4-4|
E|---------------------------------------------------------------------------------------------|
End of Rythm Figure 1End of Rythm Figure 1
Rythm Figure 2
E|------------------------------------------|
B|------------------------------------------|
G|-4-4-4-4-4---4-4-4-4-4---4-4-4-4-4--------|
D|-4-4-4-4-4---4-4-4-4-4---4-4-4-4-4---2----|
A|-2-2-2-2-2---2-2-2-2-2---2-2-2-2-2---2----|
E|-------------------------------------0----|
Riff 1
E|-------------------------------------------|
B|-------------------------------------------|
G|-------------------------------------------|
D|-1------4----1---------1---------1---------|
A|----2-----------2---------2--4---------2---|
E|-------------------0----------------0------|
B5
Home show, mom won't know
E5/B F#5
Run out the back door
E5/B F#5
He's passed out on the floor
B5
Third time, been caught twice
E5/B F#5
Forgive our neighbor Bob
E5/B F#5
I think he humped the dog
G#5 F#5 E5
But good things come to those who wait
F#5
Cause she laid me
G#5 F#5 E5 F#5
And mom and dad possess the key - instant slavery
G#5 F#5 E5 F#5
No need explain the plan no need to even bother
G#5 F#5 E5 F#5
I'll pack my bags I swear I'll run - wish my friends were 21
Play Rythm Figure 2
B5
White lies, blood shot eyes
E5 F#5 E5 F#5
Breath of alcohol, stole it from the mall
B5
How's Chris marked with lipstick
E5 F#5 E5 F#5
Better call their fathers, sleeping with your daughters
G#5 F#5 E5
But good things come to those who wait
F#5
Cause she laid me
G#5 F#5 E5 F#5
And mom and dad possess the key - instant slavery
G#5 F#5 E5 F#5
No need explain the plan no need to even bother
G#5 F#5 E5 F#5
I'll pack my bags I swear I'll run - wish my friends were 21
B5 E5 B5 F#5
You don't belong, you left the kids to carry on
B5
You planned their fall
E5 B5 F#5
Too bad you're wrong, don't need a mom dad slave drive song
B5
I time bomb
E5
I time bomb
G#5
I time bomb
F#5
I time bomb
Play Riff 1
(Just Bass on this part:)
Turn low the radio,
I think I hear my dad
Yelling at the band
G#5 F#5 E5
But good things come to those who wait
F#5
Cause she laid me
G#5 F#5 E5 F#5
And mom and dad possess the key - instant slavery
G#5 F#5 E5 F#5
No need explain the plan no need to even bother
G#5 F#5 E5 F#5
I'll pack my bags I swear I'll run - wish my friends were 21
B5 E5 B5 F#5
You don't belong, you left the kids to carry on
B5
You planned their fall
E5 B5 F#5
Too bad you're wrong, don't need a mom dad slave drive song

Re: Blink 182

: If any1 has any sheets for any of the Blink songs then plz send them to me! Thanx!

Ghostbusters

Does anyone know where i can get the bass music for ghostbusters?

Re: Ghostbusters

or the guitar music of ghostbusterss????
please drop a line at: aquadaantje@hotmail.com

Re: Ghostbusters

go to www.guitartabs.cc and search. i just saw it

Need chords

For Bush- Glycerine.

Manuel De falla

Any Sheet music on De falla??

staind

i need cords or sheet music to outside

Re: staind

: i need cords or sheet music to outside, it's been awhile, fade, and for you

Re: staind

: i need cords or sheet music to outside

Re: staind can someone help?

: : i need cords to outside

Re: staind

: i need cords or sheet music to outside

Re: staind

: : i need sheet music to outside

Re: staind

: i need cords or sheet music to outside

Re: staind

: : i need cords or sheet music to #7 on the cd i forgot wat its called and i dont have the cds case

Re: staind

: : i need cords or sheet music to #7 on the cd i forgot wat its called and i dont have the cds case

Re: staind

: i need cords or sheet music to outside

Anyone have free guitar tabs for Staind?

Prefs:Outside,Fade,It's Been Awhile

free giutar lyrics &cords music

free giutar lyrics &cords music

This popular thread has been given its own page : free giutar lyrics &cords music

looking for code

can i have music code 4 GODFATHER (Slash gun 'n' roses)

sugar ray

I need tabs for Runaway by Sugar Ray

Metallica Free sheet music

Where can i find free metallica sheet music. thanx

can sum1 plz email me 'enter sandman's sheet music?!

I just got my guitar christmas of 2005 and im really wanting to learn the deep begining strings to the starting of enter sandman by metallica. im not sure if its a base or eletric, but i wanna learn how to play it eaither way. I already learned how to play 'smoke on water' in one day so i was hoping 'enter sandman' would be just as easy. So PLEEEEEASE if anyone who reades this would be kind enough to email me the sheet music to 'enter sandman' i would be oso gratefull

Re: Metallica Free sheet music

: Where can i find free metallica sheet music. thanx

Re: Metallica Free sheet music

: : Where can i find free metallica sheet music. thanx
I am really after some sheet music for Metallica songs, especially 'Unforgiven' and 'Nothing Else Matters'....but also anything else I can get a hold of. Do you know where I can get it?

Re: Metallica Free sheet music

: : : Where can i find free metallica sheet music. thanx for the gutar
: I am really after some sheet music for Metallica songs, especially 'Unforgiven' and 'Nothing Else Matters'....but also anything else I can get a hold of. Do you know where I can get it?

Re: Metallica Free sheet music

: Where can i find free metallica sheet music. thanx

Re: Metallica Free sheet music

: : Where can i find free metallica sheet music. thanx

Re: Metallica Free sheet music

: : : Where can i find free metallica sheet music. thanx a lot.

Re: Metallica Free sheet music

: Where can i find free metallica sheet music. thanx

Re: Metallica Free sheet music

entersandman

Looking for Dueling Banjos Sheet Music

Looking for Dueling Banjos Sheet Music

This popular thread has been given its own page : Looking for Dueling Banjos Sheet Music

Free sheet music for beginners with acoustic guitar

I have just recently bought an acoustic guitar and Im looking for some free sheet music for beginners, If anyone knows of any please email me. Thanks

Re: Free sheet music for beginners with acoustic guitar

: I have just recently bought an electric guitar and Im looking for some free sheet music for beginners, If anyone knows of any please email me. Thanks

Re: Free sheet music for beginners with acoustic guitar

: I have just recently bought an acoustic guitar and Im looking for some free sheet music for beginners, If anyone knows of any please email me. Thanks

Re: Free sheet music for beginners with acoustic guitar

: : I have just recently bought an acoustic guitar and Im looking for some free sheet music for beginners, If anyone knows of any please email me. Thanks

Re: Free sheet music for beginners with acoustic guitar

: : : I have play an acoustic guitar and Im looking for some free sheet music I could play. If anyone knows of any please email me. Thanks

Re: Free sheet music for beginners with acoustic guitar

: : I just bought an acoustic guitar and I'm looking for some free sheet music for beginners, If anyone knows of any please email me. Thank you

sheet music

where can I find simple sheet music for Uncle Kracker.

Blink182 Sheet Music

If anyone has blink182 sheet music for guitar please send them to me :) thanks

Re: Blink182 Sheet Music

anyone got the tab for carousel by blink182?
cheers

BLink 182 (Stay together for the Kids)

IF you have bass gutair tabz for this song please can I have them

Re: BLink 182 (Stay together for the Kids)

:
:If you have music cordz for electric guitar please email them to me'

Re: Blink182 Sheet Music

if you have Blink182 sheet music please send it to me =D thanks

Re: Blink182 Sheet Music

: if you have Blink182 sheet music please send it to me =D thanks

go to tabcrawler.com for these tabs. They are correct and precise.

Re: Blink182 Sheet Music

: if you have Blink182 sheet music please send it to me =D Needed badly ta x

Re: Blink182 Sheet Music

: If anyone has blink182 sheet music for guitar please send them to me :) thanks

Re: Blink182 Sheet Music

Post new comment

The content of this field is kept private and will not be shown publicly.
CAPTCHA
This question is for testing whether you are a human visitor and to prevent automated spam submissions. Do not include any spaces in your answer.
Image CAPTCHA
Copy the characters (respecting upper/lower case) from the image.

Contact | Advertise | Contents | Privacy Policy | Forum

This site is published by Hitsquad Pty Ltd. Copyright © 1999 - 2017 , All Rights Reserved.