Fresh Tabs

Fresh Tabs

Few but NEW !!

Gives you tablatures of chart-topping songs at the moment.
Old and out-dated songs will be deleted from the site.

Current Examples:

Hootie & The Blowfish - I Will Wait NEW!! REQUESTED!!
Fuel - Sunburn NEW!! REQUESTED!!

Alanis Morrisette - Thank You NEW!!
98 Degrees - Because Of You NEW!!
Shawn Mullins - Lullaby NEW!!
Lenny Kravitz - Fly Away NEW!!

Offspring-Pretty Fly(For A White Guy) NEW!!
Goo Goo Dolls - Slide NEW!!
Moffatts - If Life Is So Short NEW TAB !!
Ramstein - Du Hast

Bryan Adams - On A Day Like Today NEW!!
Eagle Eye Cherry - Save Tonight NEW!!
Aaliyah-Are You That Somebody(Bass) NEW!!
Foo Fighters - Walking After You
Sarah Mclachlan - Adia
Semisonic - Closing Time
Ben Folds Five - Brick
Edwin Mccain - I'll Be
Third Eye Blind - Jumper
Korn - Got The Life
Barenaked Ladies - One Week
Puff Daddy & Jimmy Page - Come With Me
Innuendo - Belaian Jiwa
Man Bai - Kau Ilhamku
Fuel - Shimmer
Hole - Celebrity Skin

Comment viewing options

Select your preferred way to display the comments and click "Save settings" to activate your changes.

Re: I NEED the splender I think god caN EXPLAIN tabs.

: i NEED THE FUCKTUBBING TABS .sO PLEASE REPLY...
: dON'T TRUST THE BUGGER LOVESARUKUS....SHE'S ...OR HE'S A FUCKTUB
: bLOODY FAKER
: cAN'T EVEN TAB RIGHT!!!!!!!!

You suck, ur a mother fucker...
you got bull shit men...
fuck u

try this.......

try this one... hope you like it...
Title: "I Think God Can Explain"
Artist: Splender

Play the guitar on a standard setting. Use a guitar capo and insert it on the 4th fret.

CHORDS:
C D Em G Am F
E-0 E-0 E-0 E-3 E-0 E-0
B-1 B-3 B-0 B-3 B-1 B-1
G-0 G-2 G-0 G-0 G-2 G-0
D-2 D-0 D-2 D-0 D-2 D-3
A-3 A-X A-2 A-2 A-0 A-3
E-X E-X E-0 E-3 E-X E-X

Intro:

Guitar 1:

E---------------------------------------------------------------
B-3---3--------3--3H5------3---3---------3---3H5--0H1--
G--1--------0---1--------0----1--------0----1----------------
D---2---2-2-4----2-----2-4----2---2-2-4----2--------------
A---------------------------------------------------------------
E---------------------------------------------------------------

Guitar 2: C-D-Em (Play everything twice)

Verse One: C-D-Em-C-D-(Em-D-G) The chords in the parenthesis is strummed once
(Play everything twice)

Chorus: Am-D-G- then…..

E----------------------
B----------------------
G------------0------0-
D----------0------0---
A-0--2--3------2-----
E----------------------
(Play everything four times)

Repeat Intro

Verse Two: C9-D-Em-C9-D-(Em-D-G)
then play…

E---------0---------------0-----------------2-----3-----2------0---------
B-----3-----3---3-----3----3---3------0---0---0-----0-----0------0----
G---0---0-----0-----0---0----0------0---0-------0-----0-----0------0--
D-2---------------2---------------2---------------------------------------
A---------------------------------------------------------------------------
E---------------------------------------------------------------------------

Then play: (Em-D-G)

Chorus Two: play chorus chords

Bridge: F-G (play three times), F

Then play in downward stroke:
E-------------------
B--1---0---0---0--
G--0---0---0---0--
D--2---0---0---0--
A--3---2---0---2--
E-------------------

Then play F repeatedly until chorus…

Chorus Three: play chorus chords seven times… then play Am-D,
Then play in downward stroke:
E-------------------
B--1---0---0---0--
G--0---0---0---0--
D--2---0---0---0--
A--3---2---0---2--
E-------------------
Then play F-C

Re: I NEED the splender I think god caN EXPLAIN tabs.

: i NEED THE FUCKTUBBING TABS .sO PLEASE REPLY...
: dON'T TRUST THE BUGGER LOVESARUKUS....SHE'S ...OR HE'S A FUCKTUB
: bLOODY FAKER
: cAN'T EVEN TAB RIGHT!!!!!!!!

Here it is!!!!!!!!!!!

I hope you'll like this….
Title: "I Think God Can Explain"
Artist: Splender

Note: Play the guitar on a standard setting. Use a guitar capo and insert it on the 4th fret.

CHORDS:
C D Em G Am F
E-0 E-0 E-0 E-3 E-0 E-0
B-1 B-3 B-0 B-3 B-1 B-1
G-0 G-2 G-0 G-0 G-2 G-0
D-2 D-0 D-2 D-0 D-2 D-3
A-3 A-X A-2 A-2 A-0 A-3
E-X E-X E-0 E-3 E-X E-X

Intro:

Guitar 1:

E---------------------------------------------------------------
B-3---3--------3--3H5------3---3---------3---3H5--0H1--
G--1--------0---1--------0----1--------0----1----------------
D---2---2-2-4----2-----2-4----2---2-2-4----2--------------
A---------------------------------------------------------------
E---------------------------------------------------------------

Guitar 2: C-D-Em (Play everything twice)

Verse One: C-D-Em-C-D-(Em-D-G) The chords in the parenthesis is strummed once
(Play everything twice)

Chorus: Am-D-G- then…..

E----------------------
B----------------------
G------------0------0-
D----------0------0---
A-0--2--3------2-----
E----------------------
(Play everything four times)

Repeat Intro

Verse Two: C9-D-Em-C9-D-(Em-D-G)
then play…

E---------0---------------0-----------------2-----3-----2------0---------
B-----3-----3---3-----3----3---3------0---0---0-----0-----0------0----
G---0---0-----0-----0---0----0------0---0-------0-----0-----0------0--
D-2---------------2---------------2---------------------------------------
A---------------------------------------------------------------------------
E---------------------------------------------------------------------------

Then play: (Em-D-G)

Chorus Two: play chorus chords

Bridge: F-G (play three times), F

Then play in downward stroke:
E-------------------
B--2---0---0---0--
G--0---0---0---0--
D--0---0---0---0--
A--3---2---0---2--
E-------------------

Then play F repeatedly until chorus…

Chorus Three: play chorus chords seven times… then play Am-D,
Then play in downward stroke:
E-------------------
B--2---0---0---0--
G--0---0---0---0--
D--0---0---0---0--
A--3---2---0---2--
E-------------------
Then play F-C

Re: I NEED the splender I think god caN EXPLAIN tabs.

pls send me the lyrics n tabs of splender's i think god can xplain..plssssssss

Re: I NEED the splender I think god caN EXPLAIN tabs.

: i NEED THE TABS .sO PLEASE REPLY...
: dON'T TRUST THE BUGGER LOVESARUKUS....SHE'S ...OR HE'S A FUCKTUB
: bLOODY FAKER
: cAN'T EVEN TAB RIGHT!!!!!!!!

HERE is the complete tab you want on splender's i think god can

Submitted by: Britton Go

E-mail me at britlikesbillie@yahoo.com for suggestions and comments

Artist: Splender

Song: I think God can explain

These are the exact chords to the song... the chords are pretty hard to play but they sound good
and I only named these chords according to its basic name although it ain't

For the exact timing of the parts of the song especially the strumming and plucking...
just figure it out on the tape okay?
Chords involved:
F G Am C D Bb
E-3 E-3 E-3 E-3 E-3 E-3
B-1 B-1 B-1 B-1 B-1 B-1 These are my homemade chords which should
G-2 G-0 G-0 G-0 G-2 G-2 used troughout the song
D-1 D-0 D-2 D-2 D-0 D-3
A-3 A-2 A-X A-3 A-X A-1
E-1 E-3 E-X E-X E-X E-X

Intro: While guitar one does Hand Plucking intro...Guitar two does the strumming...

Guitar One
E-3--3-3---3H5-3--3--3-3---3H5--3--0H1--0---
B--1----1----------1----1-----------------0-
G---2----2----------2----2------------------
D-------------------------------------------
A------0---------------0--------------------
E-1---------------1-------------------------

Guitar Two: F-G-A played twice

Verse One:

Play the entire thing twice
Guitar one and two: F-G-A-F-G-(A-G-C)<<<The chords inside the parenthesis is strummed once
together with the drumbeat

Chorus:

D-G-C- Here's the tricky part....
while guitar one plays the C chord... guitar two suddenly slips a plucking riff

E-----------3------3--3------
B---------1------1----1------
G-------0------0------0------
D-0-2-3------2--------0------
A----------------------------
E----------------------------

Repeat Intro

Verse Two:

F-G-A-F-G-(A-G-C)

Then guitar one plays: F-G-A

while guitar two plucks:
E---------5---------------5-----------------7-----8-----7------5-----
B-----8-----8---8-----8----8---8------5---5---5-----5-----5------5---
G---5---5-----5-----5---5----5------5---5-------5-----5-----5------5-
D-7---------------7---------------7----------------------------------
A--------------------------------------------------------------------
E--------------------------------------------------------------------

then altogether play: F-G-(A-G-C)

then do chorus:

then bridge: Bb - C repeatedly till the beat comes...
both guitars play:
Downstroke everthing okay?
E--3---3---3---3----
B--1---1---1---1----
G--0---0---0---0---- then play the Bb in an increasing volume done by palm mute to full strum
D--3---2---0---3----
A--------------2----
E-------------------

play chorus

other guitar plays the lead simultaneously while the other plays the chords to the chorus
E-3--1---0----------------------------------------------------
B----------3--3--3pull-up one step high then down3-----1---1--
G--------------------------------------------------------2----
D-------------------------------------------------------------
A-------------------------------------------------------------
E-------------------------------------------------------------

*the pull up then down creates a dramatic shift of note instead of the regular hammering

Well that's it for now...hope you guys like this...
I recommended that you guys use reverb and chorus effects for closeness to the song
remember that when it comes to plucking...let the note ring and sustain by itself

Re: I NEED the splender I think god caN EXPLAIN tabs.

: i NEED THE FUCKTUBBING TABS .sO PLEASE REPLY...
: dON'T TRUST THE BUGGER LOVESARUKUS....SHE'S ...OR HE'S A FUCKTUB
: bLOODY FAKER
: cAN'T EVEN TAB RIGHT!!!!!!!!

Re: here is a complete detailed tab to i think god can

Submitted by: Britton Go

E-mail me at britlikesbillie@yahoo.com for suggestions and comments

Artist: Splender

Song: I think God can explain

These are the exact chords to the song... the chords are pretty hard to play but they sound good
and I only named these chords according to its basic name although it ain't

For the exact timing of the parts of the song especially the strumming and plucking...
just figure it out on the tape okay?
Chords involved:
F G Am C D Bb
E-3 E-3 E-3 E-3 E-3 E-3
B-1 B-1 B-1 B-1 B-1 B-1 These are my homemade chords which should
G-2 G-0 G-0 G-0 G-2 G-2 used troughout the song
D-1 D-0 D-2 D-2 D-0 D-3
A-3 A-2 A-X A-3 A-X A-1
E-1 E-3 E-X E-X E-X E-X

Intro: While guitar one does Hand Plucking intro...Guitar two does the strumming...

Guitar One
E-3--3-3---3H5-3--3--3-3---3H5--3--0H1--0---
B--1----1----------1----1-----------------0-
G---2----2----------2----2------------------
D-------------------------------------------
A------0---------------0--------------------
E-1---------------1-------------------------

Guitar Two: F-G-A played twice

Verse One:

Play the entire thing twice
Guitar one and two: F-G-A-F-G-(A-G-C)<<<The chords inside the parenthesis is strummed once
together with the drumbeat

Chorus:

D-G-C- Here's the tricky part....
while guitar one plays the C chord... guitar two suddenly slips a plucking riff

E-----------3------3--3------
B---------1------1----1------
G-------0------0------0------
D-0-2-3------2--------0------
A----------------------------
E----------------------------

Repeat Intro

Verse Two:

F-G-A-F-G-(A-G-C)

Then guitar one plays: F-G-A

while guitar two plucks:
E---------5---------------5-----------------7-----8-----7------5-----
B-----8-----8---8-----8----8---8------5---5---5-----5-----5------5---
G---5---5-----5-----5---5----5------5---5-------5-----5-----5------5-
D-7---------------7---------------7----------------------------------
A--------------------------------------------------------------------
E--------------------------------------------------------------------

then altogether play: F-G-(A-G-C)

then do chorus:

then bridge: Bb - C repeatedly till the beat comes...
both guitars play:
Downstroke everthing okay?
E--3---3---3---3----
B--1---1---1---1----
G--0---0---0---0---- then play the Bb in an increasing volume done by palm mute to full strum
D--3---2---0---3----
A--------------2----
E-------------------

play chorus

other guitar plays the lead simultaneously while the other plays the chords to the chorus
E-3--1---0----------------------------------------------------
B----------3--3--3pull-up one step high then down3-----1---1--
G--------------------------------------------------------2----
D-------------------------------------------------------------
A-------------------------------------------------------------
E-------------------------------------------------------------

*the pull up then down creates a dramatic shift of note instead of the regular hammering

Well that's it for now...hope you guys like this...
I recommended that you guys use reverb and chorus effects for closeness to the song
remember that when it comes to plucking...let the note ring and sustain by itself

melissa etheridge

*Could you please send me the tab for "you used to love to dance"(melissa etheridge)...If somebody knows where i can find the tab please e-mail me or let me know where i can find it...thanks

*Alguien Podria mandarme el acorde "you used to love to dance" de melissa etheridge...Por favor!!!!!

Edwin McCain MESSENGER

Anyone out there got tabs for the messenger cd as it rocks and i cannot find them on the net anywhere. I mainly want the accoustic tab to Ill be.
If anyone has these tabs or knows where i can find them please e-mail me them or let me know where i can find them

Thanks

Duncan

Re: Edwin McCain MESSENGER

: Anyone out there got tabs for the messenger cd as it rocks and i cannot find them on the net anywhere. I mainly want the accoustic tab to Ill be.
: If anyone has these tabs or knows where i can find them please e-mail me them or let me know where i can find them

: Thanks

: Duncan

Re: Edwin McCain MESSENGER(I could not ask for more)

I need the chords to "I could not ask for more" I am in a band and admire edwin mccain's voice very much but the chords are the only thing that is keeping my band from playing it. I believe he uses a kapo on his guitar, but i would love for someone to get back at me with those chords.

Please just this one favor from who ever cares,
Thanks a lot, Kyle

Re: Edwin McCain MESSENGER(I could not ask for more)

: : Anyone out there got tabs for the messenger cd as it rocks and i cannot find them on the net anywhere. I mainly want the accoustic tab to Ill be.
: : If anyone has these tabs or knows where i can find them please e-mail me them or let me know where i can find them

: : Thanks

: : Duncan

Edwin McCain hidden tablature

Here's the address for Edwin McCain tablature.

http://www.edwin.com/tab/

You can not access this page through edwin.com. This page is an index of the tablature page that used to be on ediwn.com

love by the moffatts

Has anyone got the guitar tab (i mean the actual guitar tab, not just chord names) for the song "love" by the moffatts? if so please send it to me, thanks

Re: love by the moffatts

I have the begining part but after that I don't know it if you want it email me

Tab Needed for school assignment

I was hoping if you can email me some music of Marco Antonio Solis and LOs Bukis..pleeseeee

shimmer guitar tabs!!!!!!!!!!!

It would be nice if some lovely people would send me the tabs 4 shimmer by fuel..............!!!!!!!!!!!!!!!!!!
love ya!!!!!!

Re: shimmer guitar tabs!!!!!!!!!!!

here ya go buddy <a href="http://www.ultimate-guitar.com/cgi/redir/rd.cgi?u=Fuel/shimmer_ver2.txt">Click here</a>

Re: shimmer guitar tabs!!!!!!!!!!!

: It would be nice if some lovely people would send me the tabs 4 shimmer by fuel..............!!!!!!!!!!!!!!!!!!
: love ya!!!!!!

Re: shimmer guitar tabs!!!!!!!!!!!

sorry i dont have the tab for shimmer but i would really like them as well. bye

I think god can explain!!!

What can no one tab this song I need this to play on my guitar to help me relax some one tab it please

Re: I think god can explain!!! i got the tabs

Submitted by: Britton Go

E-mail me at britlikesbillie@yahoo.com for suggestions and comments

Artist: Splender

Song: I think God can explain

These are the exact chords to the song... the chords are pretty hard to play but they sound good
and I only named these chords according to its basic name although it ain't

For the exact timing of the parts of the song especially the strumming and plucking...
just figure it out on the tape okay?
Chords involved:
F G Am C D Bb
E-3 E-3 E-3 E-3 E-3 E-3
B-1 B-1 B-1 B-1 B-1 B-1 These are my homemade chords which should
G-2 G-0 G-0 G-0 G-2 G-2 used troughout the song
D-1 D-0 D-2 D-2 D-0 D-3
A-3 A-2 A-X A-3 A-X A-1
E-1 E-3 E-X E-X E-X E-X

Intro: While guitar one does Hand Plucking intro...Guitar two does the strumming...

Guitar One
E-3--3-3---3H5-3--3--3-3---3H5--3--0H1--0---
B--1----1----------1----1-----------------0-
G---2----2----------2----2------------------
D-------------------------------------------
A------0---------------0--------------------
E-1---------------1-------------------------

Guitar Two: F-G-A played twice

Verse One:

Play the entire thing twice
Guitar one and two: F-G-A-F-G-(A-G-C)<<<The chords inside the parenthesis is strummed once
together with the drumbeat

Chorus:

D-G-C- Here's the tricky part....
while guitar one plays the C chord... guitar two suddenly slips a plucking riff

E-----------3------3--3------
B---------1------1----1------
G-------0------0------0------
D-0-2-3------2--------0------
A----------------------------
E----------------------------

Repeat Intro

Verse Two:

F-G-A-F-G-(A-G-C)

Then guitar one plays: F-G-A

while guitar two plucks:
E---------5---------------5-----------------7-----8-----7------5-----
B-----8-----8---8-----8----8---8------5---5---5-----5-----5------5---
G---5---5-----5-----5---5----5------5---5-------5-----5-----5------5-
D-7---------------7---------------7----------------------------------
A--------------------------------------------------------------------
E--------------------------------------------------------------------

then altogether play: F-G-(A-G-C)

then do chorus:

then bridge: Bb - C repeatedly till the beat comes...
both guitars play:
Downstroke everthing okay?
E--3---3---3---3----
B--1---1---1---1----
G--0---0---0---0---- then play the Bb in an increasing volume done by palm mute to full strum
D--3---2---0---3----
A--------------2----
E-------------------

play chorus

other guitar plays the lead simultaneously while the other plays the chords to the chorus
E-3--1---0----------------------------------------------------
B----------3--3--3pull-up one step high then down3-----1---1--
G--------------------------------------------------------2----
D-------------------------------------------------------------
A-------------------------------------------------------------
E-------------------------------------------------------------

*the pull up then down creates a dramatic shift of note instead of the regular hammering

Well that's it for now...hope you guys like this...
I recommended that you guys use reverb and chorus effects for closeness to the song
remember that when it comes to plucking...let the note ring and sustain by itself

Lenny Kravitz

I need tabs of Lennys What the...are we saying?
Please mail me if you have them !

Re: Lenny Kravitz

: I need tabs of Lennys What the...are we saying?
: Please mail me if you have them !

Re: Lenny Kravitz

: : I need tabs of Lennys What the...are we saying?
: : Please mail me if you have them !

I need again tab.
Please give me

Lenny kravitz - again

I really want the song called Again made by lenny kravitz on a tab or crd... it would been kind if someones who's got it mailed it to me

Re: Lenny kravitz - again

I just want someone to e-mail me the lyrics to Again. thank

Re: Lenny kravitz - again

savannah is my babe

Re: Lenny kravitz - again

savannah is my babe

Re: Lenny kravitz - again

: I really want the song called Again made by lenny kravitz on a tab or crd... it would been kind if someones who's got it mailed it to me

I would like the chords if you have them also with the lyrics thank you
Terry Buckley

Re: Lenny kravitz - again

: : I really want the song called Again made by lenny kravitz on a tab or crd... it would been kind if someones who's got it mailed it to me

: I would like the chords if you have them also with the lyrics thank you
: Lawrence

Re: Lenny Kravitz

: I need tabs of Lennys Again
: Please mail me if you have them !

Bic Runga/Dan Wilson - Good Morning Baby

Been trying to find tabs for Good Morning Baby off the American Pie Sdtrk. Anyone have any clues?

Re: Bic Runga/Dan Wilson - Good Morning Baby

Lyrics of Good Morning baby????

Re: Bic Runga/Dan Wilson - Good Morning Baby

: Been trying to find tabs for Good Morning Baby off the American Pie Sdtrk. Anyone have any clues?

I've been looking too but no luck yet. Will let you know if I come up with anything.

robzombie

i need "scum of the earth" by rob zombie if anyone has it please send it to me

i need the space boy tab

i think god can explain and yeah, whatever would be nice too, thanks a lot

fuel - sunburn tabs

Can anyone help me find the correct sunburn tabs??? please E-mail them to me .... Thanks!

Re: fuel - sunburn tabs

: Can anyone help me find the correct sunburn tabs??? please E-mail them to me .... Thanks!
yeha i just brought the official book so ill give em to ya

Re: fuel - sunburn tabs

: Can anyone help me find the correct sunburn tabs??? please E-mail them to me .... Thanks

go to http://216.250.226.6/tabs/guitar/f/fuel/sunburn.txt or email azzah@ecluboz.com. there are a few places were the tabs arent perfect but i was able to figure it out.

Guitar TABS

Have you got any Shawn Mullins guitar TABS?

Guitar TABS

: Have you got the song 'Innocent' by Fuel in guitar tabs?

Re: Guitar TABS

: Have you got any Shawn Mullins guitar TABS? no
FIRST TIME

Re: Guitar TABS

: : Have you got any Shawn Mullins guitar TABS? no
: FIRST TIME

Please, send me back the tabs of hemorrhage and bad day

Re: Guitar TABS

: Have you got any Shawn Mullins guitar TABS? no
FIRST TIME

Re: Guitar TABS

I need very very badly the tabs for "I'll Be" by Edwin McCain

Re: Guitar TABS

: I need very very badly the tabs for "Jewel, you were meant for me"

Re: Guitar TABS

I need very very badly the tabs for "I'll Be" by Edwin McCain

Post new comment

The content of this field is kept private and will not be shown publicly.
CAPTCHA
This question is for testing whether you are a human visitor and to prevent automated spam submissions. Do not include any spaces in your answer.
Image CAPTCHA
Copy the characters (respecting upper/lower case) from the image.

Contact | Contents | Privacy Policy | Forum

This site is published by Hitsquad Pty Ltd. Copyright © 1999 - 2017 , All Rights Reserved.