Siouxsie & The Banchees: Israel guitar/bass tabs

Posted by Eric on Tue, 04/24/01 - 14:21:57.

Hi! Anyone know where I can find Siouxsie & The Banchees: Israel guitar/bass tabs? Thanks!

Comment viewing options

Select your preferred way to display the comments and click "Save settings" to activate your changes.

Re: Siouxsie & The Banchees: Israel guitar/bass tabs

hi ! the intro is something like that :

5-----------5-----------5-----------------5--------------
------0----------0-----------0-----0-----------0-----0--
---2------0----2-----0-----2-----0-----2-----2-----0-----2

Re: Siouxsie & The Banchees: Israel guitar/bass tabs

hi ! the intro is something like that :

5-----------5-----------5-----------------5--------------
------0----------0-----------0-----0-----------0-----0--
---2-----0-----2-----0-----2-----0-----2-----2-----0-----2

Re: Siouxsie & The Banchees: Israel guitar/bass tabs

and then :

10------------7---------------5---------12------
---10-----------7-----------6--------13---------
------10----------7-------5-------12------------
---------10---------7-------------------------

Re: Siouxsie & The Banchees: hogn kong garden tab

anyone know for a hong kong garden guitar tab?? email me @ glittertrashyfairy@hotmail.com.. fankooo =)

Re: Siouxsie & The Banchees: Israel guitar/bass tabs

HELLO GUITAR FRIEND
I LIKE THE DARK PEOPLE THE CHOR OF ISRAEL ARE:
EM, C#, G, D IN ARPEGIATTE
I WAIT FOR YOUR REPUESTA
I NEED THE CHOR OR THE TABS OF ANY SONG OF SIOUXSIE
LIKE: SPELLBOUND , CANDYMAN ETC.

SEND ME A E-MAIL THANKS
HECTOR.

Post new comment

The content of this field is kept private and will not be shown publicly.
CAPTCHA
This question is for testing whether you are a human visitor and to prevent automated spam submissions. Do not include any spaces in your answer.
Image CAPTCHA
Copy the characters (respecting upper/lower case) from the image.

Contact | Advertise | Contents | Privacy Policy | Forum

This site is published by Hitsquad Pty Ltd. Copyright © 1999 - 2017 , All Rights Reserved.