Billboard Guitar Tabs

Billboard Guitar Tabs

Best place on the web for pop tabs.

At billboard Guitar Tab you can find great tabs for all your favorite bands and artists.

Comment viewing options

Select your preferred way to display the comments and click "Save settings" to activate your changes.

Re: maria maria

Please send me tabs for Santanas Maria Maria

NO ME AMES: jennifer lopez & marc anthony

Does anyone have the guitar tabs to this song?

Re: NO ME AMES: jennifer lopez & marc anthony

: Does anyone have the guitar tabs to this song?
No me ames by Jennifer lopes and marc anthony

I need of vertical horizon tabs : Everything!!!! (the song)

If you could please send me these tabs i would really love it. this is one of my favorite songs. and if you happen to know where to get the tabs to "exgirlfriend' i'd love ya more!!

here's EVERYTHING YOU WANT

everything you want

remember that vh plays a 1/2 step down.

*Intro/electric part:

1.
e-0-0-0-0-0-0-0-0-0-0-0-0-0-0-0-0
b-3-5-5-3-5-5-3-5-3-5-5-3-5-5-8-7

2.
e-0-0-0-0-0-0-0-0-0-0-0-0-0-0-0-0
b-3-5-5-3-5-5-3-5-3-5-5-3-5-5-1-0

*This part is picked not strummed just on the two high (thin) strings. It has two sections or riffs to it.

Verses:

Am->Em(1)-> *-> Em(2) -> Cmaj7
e -0- -0- -0- -0-
b -1- -0- -3- -3-
g -2- -2- -2- -0-
d -2- -0- -0- -2-
a -0- -2- -2- -3-
E -x- -x- -0- -x- -x-

Am Em1 * Em2 Cmaj7
Somewhere they're speaking, it's already coming in,

Am Em1 * Em2 Cmaj7
oh and it's rising, in the back of your mind.

Am Em1 * Em2 Cmaj7
You never could get it, unless you were fed it

Am Em1 * Em2 Cmaj7
and now you're here and you don't know why

Chorus:

G Em D
e -3- -0- -2-
b -0- -0- -3-
g -0- -0- -2-
d -0- -2- -0-
a -2- -2- -x-
E-3- -0- -x-

Am G Em D
He's everything you want, he's everything you need,

Am G Em D
He's everything inside of you that you wish you could be

Am G Em D
He says all the right things at exactly the right time,

Am Em D C
But he means nothing to you and you don't know why

Bridge*:

Em C Em
And you'll just sit tight, and watch it unwind,

D C
It's only what you're asking for.

Em C Em
And you'll be just fine, with all of your time

D C
It's only what you're waiting for.

*Play the chorus versions of these chords here.

Re: I need of vertical horizon tabs : Everything!!!! (the song)

everything you want

remember that vh plays a 1/2 step down.

*Intro/electric part:

1.
e-0-0-0-0-0-0-0-0-0-0-0-0-0-0-0-0
b-3-5-5-3-5-5-3-5-3-5-5-3-5-5-8-7

2.
e-0-0-0-0-0-0-0-0-0-0-0-0-0-0-0-0
b-3-5-5-3-5-5-3-5-3-5-5-3-5-5-1-0

*This part is picked not strummed just on the two high (thin) strings. It has two sections or riffs to it.

Verses:

Am->Em(1)-> *-> Em(2) -> Cmaj7
e -0- -0- -0- -0-
b -1- -0- -3- -3-
g -2- -2- -2- -0-
d -2- -0- -0- -2-
a -0- -2- -2- -3-
E -x- -x- -0- -x- -x-

Am Em1 * Em2 Cmaj7
Somewhere they're speaking, it's already coming in,

Am Em1 * Em2 Cmaj7
oh and it's rising, in the back of your mind.

Am Em1 * Em2 Cmaj7
You never could get it, unless you were fed it

Am Em1 * Em2 Cmaj7
and now you're here and you don't know why

Chorus:

G Em D
e -3- -0- -2-
b -0- -0- -3-
g -0- -0- -2-
d -0- -2- -0-
a -2- -2- -x-
E-3- -0- -x-

Am G Em D
He's everything you want, he's everything you need,

Am G Em D
He's everything inside of you that you wish you could be

Am G Em D
He says all the right things at exactly the right time,

Am Em D C
But he means nothing to you and you don't know why

Bridge*:

Em C Em
And you'll just sit tight, and watch it unwind,

D C
It's only what you're asking for.

Em C Em
And you'll be just fine, with all of your time

D C
It's only what you're waiting for.

*Play the chorus versions of these chords here.

Christina Aguilera "What a girl wants", Britney Spears "Sometimes"and Spice Girls "Goodbye" tabs....

Hi I need those tabs, that I cannot find anywhere.
If you have tabs for Madonna's song like "Rain", "Deeper and deeper" and the oldie stufs, I'd be grateful

Thanks
Waiting...........
Andre

Re: Christina Aguilera "What a girl wants", Britney Spears "Sometimes"and Spice Girls "Goodbye" tabs

E ai, tava quarendo cifras da Britney e da Spice Girls !!!
valeu !!!

I know where to find Britney's "Sometimes"

Just go to www.olga.net/ and look under the index....u should find sometimes because that's where i got the tabs for it.....good luck!

tabs or chords?

does any one have Lonestar's "Amazed" song tab?

Re: tabs chords lyrics?

: does any one have Lonestar's "Amazed" song tab chords lyrics? many thanks
ben in ireland

Buju Banton tab

I am looking for guitar tablature for the Buju Banton song "Untold Stories". Anyone know where I can find this and/or other Reggae tabs?

NEW MATCHBOX 20

I heard a new song by Matchbox 20 on the radio tonight, and would love to hear back from anyone in the real music world that might have heard it enough to figure out the tab. the name of the song is "bent"
Thanks Gene

P.S. Real music workd meaning Kansas City Radio SUCKS

i need tabs for "maria maria"...by santana, "i need to know"...by marc anthony and " I try"...by ma

I realy need these tabs...or can u show me some websites where i an find them...tq

i need tabs for "maria maria"...by santana, "i need to know"...by marc anthony and " I try"...by ma

I realy need these tabs...or can u show me some websites where i an find them...tq

I'd like the BSB meaning of being lonely tab

Can someone send me BSB "show me the meaning of being lonely?" Thanks
TomS

Vertical Horizon - Everything you want

Does anyone have this tab? I need it really bad. Please email me at j_soltau@hotmail.com if you know where I can get it. Thanks

Justin.

Re: Vertical Horizon - Everything you want

http://www.geocities.com/mrgarrity/everythingyouwant.html

Re: Vertical Horizon - Everything you want

I need this too, can't quite figure it out. If anyone does, please email it to me. Thanks!!
rgkamer@aol.com

Lene Marlin

Could you please send me the tabs for Lene Marlins sitting down here and unforgivable sinner?
Thanks!

Re: Lene Marlin

: Could you please send me the tabs of the Lene Marlin album, all of them. Thanks

Re: Lene Marlin

: Could you please send me the tabs for Lene Marlins sitting down here : Thanks!

Re: Lene Marlin

: Could you please send me the chords for Lene Marlin's maybe I'll go?

: Thanks!

Re: Lene Marlin

: Could you please send me the tabs for Lene Marlins album (the ten ones)
: Thanks!

Re: Lene Marlin

: Could you please send me the tabs for Lene Marlins sitting down here. I would really appreciate it!

: Thanks!

Re: Lene Marlin

: : Could you please send me the tabs for Lene Marlins sitting down here. I would really appreciate it!

: : Thanks!

liddiard@nme.com

Back street boys-back to your heart

does anyone please have the guitar tab for back to ur heart from backstreet boys....if u do please can u email it or the site to me, it would be a great pleasure. well thank you for ur time.
adam h

Re: Back street boys-back to your heart

: does anyone please have the guitar tab for back to ur heart from backstreet boys....if u do please can u email it or the site to me, it would be a great pleasure. well thank you for ur time.
: adam h

please send this tab to me too, thanks

Madonna One more chance

Can anyone find it for me, please I love the song

saw doctors

any chords to any of the sawdoctors songs please.

Re: saw doctors

http://www.nutz.org/olga/main/s/saw_doctors

: any chords to any of the sawdoctors songs please.

Lene Marlin Sitting down here is in this list!

In this list you can find Sitting down here. Its from Haary Wierz and it knows Here it is.
Don't look anywhere, guitarsite does it have!!!!!!!

-x- Alanisfan Dianne

The meaning of being lonley

if anybody has the guitar tabs for this song could ya just please send them to me thanx

Re: The meaning of being lonley

: if anybody has the guitar tabs for this song could ya just please send them to me thanx

Re: The meaning of being lonley

: : if anybody has the guitar tabs for this song could ya just please send them to me thanx

Re: The meaning of being lonley

: : : if anybody has the guitar tabs for this song could ya just please send them to me thanx

WHAT INFO DO YOU REQUIRE?

GUITAR IS MY THING,AL

I drive myself crazy + BSB guitar tabs

Please I need so much

Re: I drive myself crazy + BSB guitar tabs

: Please I need so much
Does anyone have the music, not just chords but fingerpicking score and all?

Re: I drive myself crazy + BSB guitar tabs

: Please I need so much. Thank you

Re: I drive myself crazy + BSB guitar tabs

: Please I need so much

INTRO
|------0---------0-----------------------------6-5-0------6-5--
|----2---------0-----------3--------0--------3----------3------
|--2-----2---1-----1-----2---2----1---1----2----------2--------
|----------------------4--------2------------------------------
|--------------------------------------------------------------
|--------------------------------------------------------------

VERSE 1
|--------------------------------------------------------------
|--------3----------2-------------------2----------------------
|------4----------2-----------1-------2------------------------
|----4----------2-----------2-------2--------------------------
|--2----------------------2-------0----------------------------
|------------2----------0--------------------------------------
Lying in your arms, so close together

|--------------------------------------------------------------
|--------3----------2-------------2-0-h-2-h-0------------------
|------4----------2-----------1---------------2-1--------------
|----4----------2-----------2----------------------------------
|--2----------------------2------------------------------------
|------------2----------0--------------------------------------
Didn't know just what I had

|--------------------------------------------------------------
|--------3----------2-------------------2----------------------
|------4----------2-----------1-------2------------------------
|----4----------2-----------2-------2--------------------------
|--2----------------------2-------0----------------------------
|------------2----------0--------------------------------------
Now I toss and turn, cuz I'm without you

|--------------------------------------------------------------
|--------3----------2-------------0----------------------------
|------4----------2-----------1-----1--------------------------
|----4----------2-----------2----------------------------------
|--2----------------------2------------------------------------
|------------2----------0--------------------------------------
How I'm missing you so bad

|--------2------------------------2----------------------------
|------3---3---------4----------3---3---------4----------------
|----2-------------1---1------2-------------1---1--------------
|--0-------------2----------0-------------2--------------------
|--------------2------------------------2----------------------
|--------------------------------------------------------------
Where was my head, where was my heart, now i cry alone in the dark

THAT's ALL I KNOW!

Re: I drive myself crazy + BSB guitar tabs

: Please I need so much

Re: I drive myself crazy + BSB guitar tabs

I want the tabs to I drive myself crazy a lot....please help me.....
thanx

Re: I drive myself crazy + BSB guitar tabs

: Please I need so much

Re: I drive myself crazy + BSB guitar tabs

: : Please I need so much

Re: I drive myself crazy + BSB guitar tabs

: : : Please I need so much. especially i drive myself crazy

Re: I drive myself crazy + BSB guitar tabs

I want guitar tab for "I WANT IT THAT WAY"

want elton johns tiny dancer tab

need tiny dancer tab by elton john

Re: want elton johns tiny lyrics

: need tiny dancer lyrics

Re: want elton johns tiny lyrics

Blue jean baby, L.A. lady, seamstress for the band
Pretty eyed, pirate smile, you'll marry a music man
Ballerina, you must have seen her dancing in the sand
And now she's in mine, always with me, tiny dancer in my hand

Jesus freaks out in the street
Handing tickets out for God
Turning back she just laughs
The boulevard is not that bad

Piano man he makes his stand
In the auditorium
Looking on she sings the songs
The words she knows the tune she hums

But oh how it feels so real
Lying here with no one near
Only you and you can hear me
When I say softly slowly

Hold me closer tiny dancer
Count the headlights on the highway
Lay me down in sheets of linen
you had a busy day today

Blue jean baby, L.A. lady, seamstress for the band
Pretty eyed, pirate smile, you'll marry a music man
Ballerina, you must have seen her dancing in the sand
And now she's in me, always with me, tiny dancer in my hand

Re: want elton johns tiny dancer tab

: need tiny dancer tab by elton john

Post new comment

The content of this field is kept private and will not be shown publicly.
CAPTCHA
This question is for testing whether you are a human visitor and to prevent automated spam submissions. Do not include any spaces in your answer.
Image CAPTCHA
Copy the characters (respecting upper/lower case) from the image.

Contact | Advertise | Contents | Privacy Policy | Forum

This site is published by Hitsquad Pty Ltd. Copyright © 1999 - 2017 , All Rights Reserved.