this mortal coil - you and your sister

Posted by guy falleyn on Sat, 10/21/00 - 04:40:29.

Hi,

I am trying for a long time already to find a tab to a particular song. This is a beautiful song, and I think that for an experienced guitarplayer, it should be very easy to tab. It doesn't contain more 4 chords or so.

Greetings,

Guy Falleyn

Comment viewing options

Select your preferred way to display the comments and click "Save settings" to activate your changes.

Re: this mortal coil - you and your sister

This mortal coil - you and your sister by michiel mertens
capo on 1st fret

verse.
E|---------------------------------0--0--
B|-2--2---2-3--3---3-3--3---3----3---0---
G|---2---2----4---4----4---4----4---1----
D|--2---2----4---4----4---4----4---------
A|-0---0----2---2------------------------
E|-------------------0---0----0----0-----

chorus.
E|----2----2----2---2-0--0---0-----------
B|-2-2----2--4----------0---0------------
G|-------------4---4---1---1---6--6---6--
D|--4----4----4---4--------------7---7---
A|-----------2---2--------------7---7----
E|-2----2-------------0---0----5---4-----

E|--------------------0--0---0-0--0----0-
B|-2--2----2-4--4---4---0---0----0----0--
G|---2----2----4---4---1---1----1----1---
D|--4----4----4---4----------------------
A|-----------2---2-----------------------
E|-2----2-------------0---0----0----0----

bridge1
E|-----------------------------0--0----0-
B|-3--3----3-5--5---5-7--7---7---0----0--
G|---4----4----6---6----7---7---1----1---
D|--4----4----6---6----7---7-------------
A|-2----2----4---4----5---5--------------
E|-----------------------------0----0----

bridge2.1
E|-2--2----2-0---0----0---------------------
B|---2----2-----2----2--4--4----4-4--4----4-
G|-------------2----2-----4----4----4----4--
D|--4----4---------------7----7----7----7---
A|----------------------6----6----6----6----
E|-2----2----0-----0------------------------

bridge2.2
E|-2--2---2--0---0----0---------------------
B|---2---2------2----2--4--4----4-4--4----4-
G|-------------2----2-----4----4----4----4--
D|--4---4----------------7----7----7----7---
A|-4---4----------------6----6--------------
E|-----------0-----0--------------7----7----

Re: this mortal coil - you and your sister

great tab michiel! thanks.

Re: this mortal coil - you and your sister

This mortal coil - you and your sister tab

Forgot to say that you better copy and past the tab to notepad so the alignment is correct.

Michiel

Re: this mortal coil - you and your sister

http://hjem.get2net.dk/carcass/Tab/This_Mortal_Coil.txt

: I am trying for a long time already to find a tab to a particular song. This is a beautiful song, and I think that for an experienced guitarplayer, it should be very easy to tab. It doesn't contain more 4 chords or so.

: Greetings,

:
: Guy Falleyn

Lonely-yeal naim

Hai i'm searching for the chords or tabst LONELY from Yeal Naim.

Greetings, Beaudil

Re: this mortal coil - you and your sister

: http://hjem.get2net.dk/carcass/Tab/This_Mortal_Coil.txt

: : I am trying for a long time already to find a tab to a particular song. This is a beautiful song, and I think that for an experienced guitarplayer, it should be very easy to tab. It doesn't contain more 4 chords or so.

This is how I've been playing the beginning. It isn't exactly the same as what they do on the record,
but it's pretty close. This is my first attempt at writing tab and the notes don't seem to be lined up right.
you may want to copy and paste this in a different font.

-0--0--01--1--11--1--11--13-13
---1--1---3--3---3--3---3--3--
--0--3---2--2---2--2---2------
--------0------0------0-------
-3----------------------------
------------------------------

Anyway, this gets played three times. It's just a fingerpicked/plucked C,Dminor, and D sus4. Then the
song changes, but this is as far as I've gotten so far. Anyone else have the rest?

Nate

Re: this mortal coil - you and your sister

Haven't played it along the record but i guess that the main chords of the song are

C-Dm-F-G

Re: this mortal coil - you and your sister

: Finally ive found it! you dont know how long ive been searching for the guitar tab for this song, i hope it works..thanks Nate!

Post new comment

The content of this field is kept private and will not be shown publicly.
CAPTCHA
This question is for testing whether you are a human visitor and to prevent automated spam submissions. Do not include any spaces in your answer.
Image CAPTCHA
Copy the characters (respecting upper/lower case) from the image.

Contact | Advertise | Contents | Privacy Policy | Forum

This site is published by Hitsquad Pty Ltd. Copyright © 1999 - 2017 , All Rights Reserved.