Heitor Pereira: Nyah

Posted by La Rocks on Thu, 04/05/01 - 05:06:33.

if anyone has tab for this song could you please please send it .thankz :)

Comment viewing options

Select your preferred way to display the comments and click "Save settings" to activate your changes.

Re: Heitor Pereira: Nyah

does anyone have the tab for the guitar work in the film "something's gotta give" ??

Re: Heitor Pereira: Nyah: got it!!!

You can find it at
http://www.ultimate-guitar.com/cgi-bin/redir/rd.cgi?u=Hans_Zimmer/nyah.tab

Re: Heitor Pereira: Nyah

Some dude sent this to me.
here is the first part of the song:
Start by tapping the wood with your nails and then strum an F#
major
chord a bunch of times. Here's the first riff:

E----------------------------------------------
B----------------------------------------------
G-------0-----------0-----------0--------------
D-----4-----4-----4-----4-----4----4-----------
A---4-----------4-----------4----------4-------
E-2-----------2-----------2--------------------

E----------------------------------------------
B----------------------------------------------
G-------0-----------0-----------0--------------
D-----4-----4-----4-----4-----4----4-----------
A---5-----------5-----------5----------5-------
E-7-----------7-----------7--------------------

And the solo; you gotta play this with rest-strokes to get the right
sound.

e----------------------------------------------
B-----3----------------------------2-3-5--5-5--
G--------4-4--4h6p4-3--------------------------
D-4-4----------------------------4-------------
A----------------------------------------------
E----------------------------------------------

e----2--3--3------3h5p3-2----------------------
B-5-------------------------3------------------
G-----------------------------4----------------
D----------------------------------------------
A----------------------------------------------
E----------------------------------------------

e------------------------7-6-------------------
B-----3----------------------------2-3-5--3--2-
G--------4-4--4h6p4-3--------------------------
D-4-4----------------------------4-------------
A----------------------------------------------
E----------------------------------------------

e----------------------------------------------
B-5--3-----------------------------------------
G-------3--4-----------------------------------
D--------------------2h4p2---------------------
A---------------------------5--4--2------------
E----------------------------------------------

"x" = drag agross muted strings
e------------------------7/9-9-----------------
B-----3------------------x---------2-3-5---5-5-
G--------4-4--4h6p4-3----7/9-9-----------------
D-4-4--------------------x-------4-------------
A------------------------x---------------------
E----------------------------------------------

e----2--3--3------3h5p3-2----------------------
B-5-------------------------3------------------
G-----------------------------4----------------
D----------------------------------------------
A----------------------------------------------
E----------------------------------------------

e----------------------------------------------
B-----3----------------2-3-/5------2-3-5--3--2-
G--------4-4--4h6p4-3--3-4-/6------------------
D-4-4----------------------------4-------------
A----------------------------------------------
E----------------------------------------------

e----------------------------------------------
B-5--3-----------------------------------------
G-------3--4-----------------------------------
D--------------------4h5p4-2-------------------
A----------------------------5p4-2-------------
E----------------------------------------------

There's an electric guitar part in the background here switching
between F#
and B power chords...

e--9-9-9--9--7--6--7-/9---10-10-10--10--9--7--9-/10--
B----------------------------------------------------
G--9-9-9--9--7--6--7-/9---11-11-11--11--9--7--9-/11--
D----------------------------------------------------
A----------------------------------------------------
E----------------------------------------------------

e--9-9-9--9--7--6--7-/9---7-7-7--7--6--9--6-/7-
B----------------------------------------------
G--9-9-9--9--7--6--7-/9---7-7-7--7--6--9--6-/7-
D----------------------------------------------
A----------------------------------------------
E----------------------------------------------

Then this thing once more, and I don't know the rest of the song

e----------------------------------------------
B-----3----------------2-3-/5------2-3-5--3--2-
G--------4-4--4h6p4-3--3-4-/6------------------
D-4-4----------------------------4-------------
A----------------------------------------------
E----------------------------------------------

e----------------------------------------------
B-5--3-----------------------------------------
G-------3--4-----------------------------------
D----------------------------------------------
A----------------------------------------------
E----------------------------------------------

Re: Heitor Pereira: Nyah

: if anyone has tab for this song could you please please send it .thankz :)

Hi!Do you have the tabs for Nyah now? If yes, could you send it to me? Please...

Thank you
Thomas

Re: Heitor Pereira: Nyah

Would anybody know how we can find or buy other music for Heitor Pereira

Tanx

Re: Heitor Pereira: Nyah

If you get it, could you send my a copy?

Post new comment

The content of this field is kept private and will not be shown publicly.
CAPTCHA
This question is for testing whether you are a human visitor and to prevent automated spam submissions. Do not include any spaces in your answer.
Image CAPTCHA
Copy the characters (respecting upper/lower case) from the image.

Contact | Advertise | Contents | Privacy Policy | Forum

This site is published by Hitsquad Pty Ltd. Copyright © 1999 - 2017 , All Rights Reserved.