tuck andres man in the mirror tabs

Posted by Bien Mendoza on Wed, 12/26/01 - 23:19:06.

anyone who have a copy of tuck andres man in the mirror tablature, please send me one! please! thanks

Comment viewing options

Select your preferred way to display the comments and click "Save settings" to activate your changes.

Re: tuck andres man in the mirror tabs

hi!

Re: tuck andres man in the mirror tabs

: anyone who have a copy of tuck andres man in the mirror tablature and Time after time, please send me one! please! thanks

Re: tuck andres man in the mirror tabs

: anyone who have a copy of tuck andres man in the mirror tablature, please send me one! please! thanks

Re: tuck andres man in the mirror tabs

:
: : anyone who have a copy of tuck andres man in the mirror tablature, please send me one! please! thanks

Re: tuck andres man in the mirror tabs

hey, i just found this web site & so glad to a lot of guiter lovers like you guys.. can anyone please send me one copy of tuck's "man in the mirror" ?
how do you guys get his tabs?
: :
: : : anyone who have a copy of tuck andres man in the mirror tablature, please send me one! please! thanks

tuck andres man in the mirror tabs

Author/Artist: Tuck Andress
Title: Man in the mirror
Transcribed by: Mark Cunningham
Email: mark_mjc@hotmail.com

------10-------10---------10------10-------10------12p10--------10----12p10---
-12-------10---------8--------7----------8----8----------8---10----10---------
-12-------11---------9--------7-------/9-------------------9------------------
------------------------------------------------------------------------------
------------------------------------------------------------------------------
------------------------------------------------------------------------------

-------------------------3------------------0------------3--------------------
-10----------------------3-------------3------3----------3------0h1--/3-/3-1--
----12^----4---2p0-4\2-----4\2p0-2---0----------0------2--------0h2--/4-/4-2--
----12^--5---4---------2---0-------2-----------------2--------2---------------
------------------------------------------------------------------------------
------------------------------------------------------------------------------

-------------------------------------0--------0--------------------------3----
-0---0---0h1--0h1-3-3/5\3--1p0-1p0----0-----3----------------------------3----
-0---0---0h2-----------------------2---2--2-------0h2----4----2p0--4\2--------
---0---0--------------------------------2-------2--------5----0---------------
------------------------------------------------------------------------------
-------------------------------------------------------3----3----------3---3--

-----------------------------------0----------------------------3-----3-3-3---
-----------------------------------3--0h1-3-1/3-1-1-0-3-5---3h5---3h5-3-3-3---
-2p0-4\2-----4---2-p-0-2p0-----0------0h2-4-2/4-2---------0-4h5---4h5---------
-0---------5---5-----------2--------------------------------------------------
------------------------------------------------------------------------------
---------3---3---3-----------3---3--------3-----3---3-3---3-------3-----3-----

---------------------------3--------------3--------------3--------------------
-5p3-1/3-1-0-------1-0-1-0-3------1-0-1-0-3----0h3/5-0-----3---3-0------1-0---
-5p4-2/4-2-0------0--------------0---------------------2-----0-----0---0------
-----------------2--------------0-------------------------------------2-------
-------------2-0--------------2-------------3----------2-----2-------0--------
-----3---3--------------------------------------------------------------------

-----------------------------------------------------------3-3-----6/7--------
-1----1-0-1-0-1----1-3-----0h3-5\3--5\3------3-3---3---3-5-3-3-----5/6--------
-----0------------0----0---------------------5-5---5---5-----------6/7--7-9---
----2------------0-------4----------------------------------------------------
---0------------2--------------3----3----3-0-5-5---5-5------------------------
---------------------------------------------------------------3-3------7-----

---------------------------------6/7-------------------------------------6/7--
-8-10-10/11\10-8--10-5---3-------5/6-----8-10-10/11\10-8--10-5---3-------5/6--
------9-----9--9-----5---3h4-----6/7-7-9------9-----9--9-----5---3h4-----6/7--
------8-----8--10------5----------------------8-----8--10------5--------------
------------------------------------------------------------------------------
------8-----8--10------------3-3-----7--------8-----8--10------------3-3------

-------------------------------------------------------------------------3----
-11\10-8-8---8--8---8-10--6---6---6-6--6---6--6-6--6---6--6-6-----6--6---3----
-----------9-9--9---9-----5---5---5-5--5---5--5-5--5---5--5-5-----5--5--------
-------------8--8---8-----3---3---3-3--3---3--3-3--3---3--3-3-----3--3--------
----------------------------5---5---5----5---5--5----5---5--5--5--5--5--------
-7-------7---8--8---9---------------------------------------------------------

---------------------3--------3-----------------------------------------------
-----------------3h5-3----3h5-3-----5-3--1--0------5--5--5--------------------
---4-----2-------4h5------4h5-------5-4--2--0------5--5--5--------4---2p0-----
---5-----0--------------0-------0------------------5--5--5------5---5-0-------
----------------------------------0-3----3----2--5----------------------------
-3----2------0----------------------------------------0--2--0-3---3---2-------

----------------------------------------------0----------------------3-/7-----
----------0---------------0-------------------3--0h1-3-/3--1-1--0-/3----------
-4\2----0---0-2p0-4\2---0---0-2-0-2p0-----0------0h2-4-/4--2----0-/4---/7-----
----------2---0-----------------------2---------------------------------------
----------------------3---3---3---------3---3---------------------------------
------0----------------------------------------------------2----0-0-----------

-----3-----3---3-3----------------------------------3-------------3-----------
-3h5---3h5-3---3-3-5-5-3--1/3--1--0---------1-0-1-0-3-----1-0-1-0-3-----0h3---
-4h5---4h5---------5-5-4--2/4--2--0--------0-------------0--------------------
------------------------------------------2-------------0---------------------
-------3-------3----------3----3-----2-0--------------2--------------3--------
------------------------------------------------------------------------------

-------3----------------------------------------------------------------------
-5-0-----3---3-0------1-0-1----1-0-1-0-1----1-3-----0h3--5\3-5\3-----3-3--3---
-----2-----0-----0---0--------0------------0----0--------------------5-5--5---
--------------------2--------2------------0-------4---------------------------
-----2-----2-------0--------0------------2---------------3---3---3-0-5-5--5---
------------------------------------------------------------------------------

-------3-3------6/7-----------------------------------------6/7---------------
---3-5-3-3------5/6------8-10--10/11\10--8--10--5---3-------5/6------8-10-----
---5------------6/7--7-9-------9---------9------5---3h4-----6/7--7-9----------
-------------------------------8---------10-------5---------------------------
-5----------------------------------------------------------------------------
------------3-3------7---------8---------10-------------3-3------7------------

--------------------------6/7-------------------------------------------------
-10/11-10--8--10----------5/6--11\10-8-8---8--8--8-10---6---6---6---6---6-----
-9-----9---9--------------6/7------------9-9--9--9------5---5---5---5---5-----
-8-----8---10------------------------------8--8--8------3---3---3---3---3-----
----------------------------------------------------------5---5-----5-----5---
-8-----8---10---------3-3------7-------7---8--8--9----------------------------

----------------------------------------3------6/7-------------10---8---6-----
-6----6-----6---6---6---6-------6--6----3------5/6------8-10---11---10--8-----
-5----5-----5---5---5---5-------5--5-----------6/7--7-9-----------------------
-3----3-----3---3---3---3-------3--3------------------------------------------
----5-----5---5---5-----5---5---5--5------------------------------------------
-------------------------------------------3-3------7-------------------------

-------------6/7--------------------------------------6/7---------------------
-5---3-------5/6------8-10---10/11-10--8--10----------5/6--11\10-8-8---8--8---
-5---3h4-----6/7--7-9--------9-----9---9--------------6/7------------9-9--9---
---5-------------------------8-----8---10------------------------------8--8---
------------------------------------------------------------------------------
---------3-3------7----------8-----8---10---------3--------7-------7---8--8---

-------------------------------------------------------------------3/4-----7/-
-8-10----6---6---6---6---6---6---6-----6---6---6---6-------6--6----3/4-----6/-
-9-------5---5---5---5---5---5---5-----5---5---5---5-------5--5----4/5-----7/-
-8-------3---3---3---3---3---3---3-----3---3---3---3-------3--3----5/6--------
-----------5---5-----5-----5---5-----5---5---5-----5---5---5--5---------------
-9---------------------------------------------------------------------4-4----

-8----------------------------------------------------------------------------
-7-------9-11--11/12-11--9--9----9----9--9--11-11-9-9-9-9-9--9--11-11-9-9-4---
-8--8-10-------10----10--10-10---10---11-11-10-10-8-8-8-8-10-10-10-10-8-8-6---
---------------9-----9---11-11---11---10-10-10-10-7-7-8-8-11-11-9--9--7-7-5---
--------------------------------------11-11-9--9--8-8-7-7---------------------
----8----------9-----9---11-11---11-----------------------11-11-9--9--7-7-5---

----------------------------------------------------7/8-----------------------
-4--4---4-4---4---4-4---4---4-4---4---6-6---6-------6/7--12\11-9-9----9---9---
-6--6---5-5---5---3-3---3---4-4---4---6-6---6-------7/8------------10-10--10--
-5--5---4-4---4---4-4---4---3-3---3---5-5---5-------------------------9---9---
------------------3-3---3---4-4---4---6-6---6---------------------------------
-5--5---4-4---4---------------------------------4-4------8-------8----9---9---

------------------------------------------------------------7--7---4----------
-9--11---7---7---7---7---7---7----7-----7---7---7---7-------7--7---4------4^--
-10------6---6---6---6---6---6----6-----6---6---6---6-------6--6----------5^--
-9-------4---4---4---4---4---4----4-----4---4---4---4-------4--4----------4^--
-----------6---6-----6-----6----6-----6---6---6-----6---6---6--6--------------
-10-------------------------------------------------------------------4-4-----

------------------------------------------------------------------------------
------4^-------4^-----6^-6^6^--------4^--------4^--------4^------6^-6^6^------
------3^-------4^-----6^-6^6^--------5^--------3^--------4^------6^-6^6^------
------4^-------3^-----5^-5^5^--------4^--------4^--------3^------5^-5^5^------
-3-3------4-4------6----------------------3-3-------4-4-------6---------------
--------------------------------4-4----------------------------------------4--

------------------------------------------------------------------------------
----4^--------4^--------4^--------4^-------7^--7--------7^--7--------7^--7----
----5^--------3^--------4^--------5^-------6^--6--------6^--6--------6^--6----
----4^--------4^--------3^--------4^-------4^-----------4^-----------4^-------
---------3-3-------4-4-------5-5--------4--------x---4--------x---4--------x--
-4----------------------------------------------------------------------------

-------------4^\--------------------------------------------------------------
----2-3--4---4^\--------------------------------------------------------------
----3-4--5---5^\--------------------------------------------------------------
----2-3--4---4^\--------------------------------------------------------------
-4----------------------------------------------------------------------------
----2-3--4--------------------------------------------------------------------

just edit the font into its original
FONT: Lucida Console

tuck andres man in the mirror tabs

Author/Artist: Tuck Andress
Title: Man in the mirror
Transcribed by: Mark Cunningham
Email: mark_mjc@hotmail.com

------10-------10---------10------10-------10------12p10--------10----12p10---
-12-------10---------8--------7----------8----8----------8---10----10---------
-12-------11---------9--------7-------/9-------------------9------------------
------------------------------------------------------------------------------
------------------------------------------------------------------------------
------------------------------------------------------------------------------

-------------------------3------------------0------------3--------------------
-10----------------------3-------------3------3----------3------0h1--/3-/3-1--
----12^----4---2p0-4\2-----4\2p0-2---0----------0------2--------0h2--/4-/4-2--
----12^--5---4---------2---0-------2-----------------2--------2---------------
------------------------------------------------------------------------------
------------------------------------------------------------------------------

-------------------------------------0--------0--------------------------3----
-0---0---0h1--0h1-3-3/5\3--1p0-1p0----0-----3----------------------------3----
-0---0---0h2-----------------------2---2--2-------0h2----4----2p0--4\2--------
---0---0--------------------------------2-------2--------5----0---------------
------------------------------------------------------------------------------
-------------------------------------------------------3----3----------3---3--

-----------------------------------0----------------------------3-----3-3-3---
-----------------------------------3--0h1-3-1/3-1-1-0-3-5---3h5---3h5-3-3-3---
-2p0-4\2-----4---2-p-0-2p0-----0------0h2-4-2/4-2---------0-4h5---4h5---------
-0---------5---5-----------2--------------------------------------------------
------------------------------------------------------------------------------
---------3---3---3-----------3---3--------3-----3---3-3---3-------3-----3-----

---------------------------3--------------3--------------3--------------------
-5p3-1/3-1-0-------1-0-1-0-3------1-0-1-0-3----0h3/5-0-----3---3-0------1-0---
-5p4-2/4-2-0------0--------------0---------------------2-----0-----0---0------
-----------------2--------------0-------------------------------------2-------
-------------2-0--------------2-------------3----------2-----2-------0--------
-----3---3--------------------------------------------------------------------

-----------------------------------------------------------3-3-----6/7--------
-1----1-0-1-0-1----1-3-----0h3-5\3--5\3------3-3---3---3-5-3-3-----5/6--------
-----0------------0----0---------------------5-5---5---5-----------6/7--7-9---
----2------------0-------4----------------------------------------------------
---0------------2--------------3----3----3-0-5-5---5-5------------------------
---------------------------------------------------------------3-3------7-----

---------------------------------6/7-------------------------------------6/7--
-8-10-10/11\10-8--10-5---3-------5/6-----8-10-10/11\10-8--10-5---3-------5/6--
------9-----9--9-----5---3h4-----6/7-7-9------9-----9--9-----5---3h4-----6/7--
------8-----8--10------5----------------------8-----8--10------5--------------
------------------------------------------------------------------------------
------8-----8--10------------3-3-----7--------8-----8--10------------3-3------

-------------------------------------------------------------------------3----
-11\10-8-8---8--8---8-10--6---6---6-6--6---6--6-6--6---6--6-6-----6--6---3----
-----------9-9--9---9-----5---5---5-5--5---5--5-5--5---5--5-5-----5--5--------
-------------8--8---8-----3---3---3-3--3---3--3-3--3---3--3-3-----3--3--------
----------------------------5---5---5----5---5--5----5---5--5--5--5--5--------
-7-------7---8--8---9---------------------------------------------------------

---------------------3--------3-----------------------------------------------
-----------------3h5-3----3h5-3-----5-3--1--0------5--5--5--------------------
---4-----2-------4h5------4h5-------5-4--2--0------5--5--5--------4---2p0-----
---5-----0--------------0-------0------------------5--5--5------5---5-0-------
----------------------------------0-3----3----2--5----------------------------
-3----2------0----------------------------------------0--2--0-3---3---2-------

----------------------------------------------0----------------------3-/7-----
----------0---------------0-------------------3--0h1-3-/3--1-1--0-/3----------
-4\2----0---0-2p0-4\2---0---0-2-0-2p0-----0------0h2-4-/4--2----0-/4---/7-----
----------2---0-----------------------2---------------------------------------
----------------------3---3---3---------3---3---------------------------------
------0----------------------------------------------------2----0-0-----------

-----3-----3---3-3----------------------------------3-------------3-----------
-3h5---3h5-3---3-3-5-5-3--1/3--1--0---------1-0-1-0-3-----1-0-1-0-3-----0h3---
-4h5---4h5---------5-5-4--2/4--2--0--------0-------------0--------------------
------------------------------------------2-------------0---------------------
-------3-------3----------3----3-----2-0--------------2--------------3--------
------------------------------------------------------------------------------

-------3----------------------------------------------------------------------
-5-0-----3---3-0------1-0-1----1-0-1-0-1----1-3-----0h3--5\3-5\3-----3-3--3---
-----2-----0-----0---0--------0------------0----0--------------------5-5--5---
--------------------2--------2------------0-------4---------------------------
-----2-----2-------0--------0------------2---------------3---3---3-0-5-5--5---
------------------------------------------------------------------------------

-------3-3------6/7-----------------------------------------6/7---------------
---3-5-3-3------5/6------8-10--10/11\10--8--10--5---3-------5/6------8-10-----
---5------------6/7--7-9-------9---------9------5---3h4-----6/7--7-9----------
-------------------------------8---------10-------5---------------------------
-5----------------------------------------------------------------------------
------------3-3------7---------8---------10-------------3-3------7------------

--------------------------6/7-------------------------------------------------
-10/11-10--8--10----------5/6--11\10-8-8---8--8--8-10---6---6---6---6---6-----
-9-----9---9--------------6/7------------9-9--9--9------5---5---5---5---5-----
-8-----8---10------------------------------8--8--8------3---3---3---3---3-----
----------------------------------------------------------5---5-----5-----5---
-8-----8---10---------3-3------7-------7---8--8--9----------------------------

----------------------------------------3------6/7-------------10---8---6-----
-6----6-----6---6---6---6-------6--6----3------5/6------8-10---11---10--8-----
-5----5-----5---5---5---5-------5--5-----------6/7--7-9-----------------------
-3----3-----3---3---3---3-------3--3------------------------------------------
----5-----5---5---5-----5---5---5--5------------------------------------------
-------------------------------------------3-3------7-------------------------

-------------6/7--------------------------------------6/7---------------------
-5---3-------5/6------8-10---10/11-10--8--10----------5/6--11\10-8-8---8--8---
-5---3h4-----6/7--7-9--------9-----9---9--------------6/7------------9-9--9---
---5-------------------------8-----8---10------------------------------8--8---
------------------------------------------------------------------------------
---------3-3------7----------8-----8---10---------3--------7-------7---8--8---

-------------------------------------------------------------------3/4-----7/-
-8-10----6---6---6---6---6---6---6-----6---6---6---6-------6--6----3/4-----6/-
-9-------5---5---5---5---5---5---5-----5---5---5---5-------5--5----4/5-----7/-
-8-------3---3---3---3---3---3---3-----3---3---3---3-------3--3----5/6--------
-----------5---5-----5-----5---5-----5---5---5-----5---5---5--5---------------
-9---------------------------------------------------------------------4-4----

-8----------------------------------------------------------------------------
-7-------9-11--11/12-11--9--9----9----9--9--11-11-9-9-9-9-9--9--11-11-9-9-4---
-8--8-10-------10----10--10-10---10---11-11-10-10-8-8-8-8-10-10-10-10-8-8-6---
---------------9-----9---11-11---11---10-10-10-10-7-7-8-8-11-11-9--9--7-7-5---
--------------------------------------11-11-9--9--8-8-7-7---------------------
----8----------9-----9---11-11---11-----------------------11-11-9--9--7-7-5---

----------------------------------------------------7/8-----------------------
-4--4---4-4---4---4-4---4---4-4---4---6-6---6-------6/7--12\11-9-9----9---9---
-6--6---5-5---5---3-3---3---4-4---4---6-6---6-------7/8------------10-10--10--
-5--5---4-4---4---4-4---4---3-3---3---5-5---5-------------------------9---9---
------------------3-3---3---4-4---4---6-6---6---------------------------------
-5--5---4-4---4---------------------------------4-4------8-------8----9---9---

------------------------------------------------------------7--7---4----------
-9--11---7---7---7---7---7---7----7-----7---7---7---7-------7--7---4------4^--
-10------6---6---6---6---6---6----6-----6---6---6---6-------6--6----------5^--
-9-------4---4---4---4---4---4----4-----4---4---4---4-------4--4----------4^--
-----------6---6-----6-----6----6-----6---6---6-----6---6---6--6--------------
-10-------------------------------------------------------------------4-4-----

------------------------------------------------------------------------------
------4^-------4^-----6^-6^6^--------4^--------4^--------4^------6^-6^6^------
------3^-------4^-----6^-6^6^--------5^--------3^--------4^------6^-6^6^------
------4^-------3^-----5^-5^5^--------4^--------4^--------3^------5^-5^5^------
-3-3------4-4------6----------------------3-3-------4-4-------6---------------
--------------------------------4-4----------------------------------------4--

------------------------------------------------------------------------------
----4^--------4^--------4^--------4^-------7^--7--------7^--7--------7^--7----
----5^--------3^--------4^--------5^-------6^--6--------6^--6--------6^--6----
----4^--------4^--------3^--------4^-------4^-----------4^-----------4^-------
---------3-3-------4-4-------5-5--------4--------x---4--------x---4--------x--
-4----------------------------------------------------------------------------

-------------4^\--------------------------------------------------------------
----2-3--4---4^\--------------------------------------------------------------
----3-4--5---5^\--------------------------------------------------------------
----2-3--4---4^\--------------------------------------------------------------
-4----------------------------------------------------------------------------
----2-3--4--------------------------------------------------------------------

Re: tuck andres man in the mirror tabs

: anyone who have a copy of tuck andres man in the mirror tablature, please send me one! please! thanks
, try www.guitar49 a guy there has tabbed a few of tucks songs

Re: tuck andres man in the mirror tabs

It's too difficult to find the exact tabs to Man in the Mirror (I don't think they exist) but a great version can be found at www.guitartabs.cc then go to the "misc" tabs, or simply do a search on "man in the mirror" in the site's search engine and you will find it there. Good Luck.

Re: tuck andres man in the mirror tabs

I´ve known tuck andres since a few months. Now i´m surprised about somebody will make whit the guitar. I´m a guitar player for 13 years and y belibed that i´ve heard every. Sorry because my ugly english: anyone who have a copy of tuck andres man in the mirror tablature, please send me one! please! thanks

Re: tuck andres man in the mirror tabs

: anyone who have a copy of tuck andres man in the mirror tablature, please send me one! please! thanks

Re: tuck andres man in the mirror tabs

anyone who has a copy or tablature of tuck andres' man in the mirror send me one plz.. this is mu email add.. bhaby_x@yahoo.com.. thnx... il wait for it..

Post new comment

The content of this field is kept private and will not be shown publicly.
CAPTCHA
This question is for testing whether you are a human visitor and to prevent automated spam submissions. Do not include any spaces in your answer.
Image CAPTCHA
Copy the characters (respecting upper/lower case) from the image.

Contact | Advertise | Contents | Privacy Policy | Forum

This site is published by Hitsquad Pty Ltd. Copyright © 1999 - 2017 , All Rights Reserved.