Flamenco-Teacher--FREE falsetas, with tablature an

Flamenco-Teacher.com, FREE online lessons, falsetas, and forum!<br>We offer free falsetas, with tablature and RealAudio, as well as a message board. Online lessons, with RealVideo, coming soon!


Comment viewing options

Select your preferred way to display the comments and click "Save settings" to activate your changes.

flamenco guitar internet classes

Hi, I am flamenco guitar teacher, I am from Cádiz and my classes in to internet. ITs so easy learn to play flamenco guitar with me and cheap. If you want to learn flamenco to internet whit me write me to my email jomata07@gmail.com. My experience is to 12 years to learn flamenco guitar. Thank you, and see you soon.

Falsetas alzapúa

OOOOOOOOOyeeee, que voy buscando falsetas de alzapúa por bulerías, enróllate y pásame alguna y así contribuimos a la música o algo. OOOOOOOOyyeeeee...

Cualquier material sobre la guitarra flamenca

Hola, tengo 22 años, soy argentino, y estoy empezando a tocar la guitarra flamenca, me gustaria y les agradeceria si me mandaran cualquier material a mis correos: desantis_nico@hotmail.com, y appleflamenco@yahoo.com.ar, desde ya muchas gracias

como para que me ames

TE AMOOOOOOOOOOOOOOOOOOOOO stefanoooooooooooo egusquizaa!

Re: Cualquier material sobre la guitarra flamenca

Hola, tengo 19 años, soy gallego, y estoy empezando a tocar la guitarra flamenca, me gustaria y les agradeceria si me mandaran cualquier material a mi correo: aute1288@hotmail.com; desde ya muchas gracias

Re: Cualquier material sobre la guitarra flamenca

: Hola yo también soy gallego. Soy apasionado del flamenco desde niño y toco la guitarra. Mi formacion básica se ha forjado en el rock punk - rock... Pero desde que estuve en Barcelona (7 años) cogí todavía más afición y me compré una guitarra flamenca y en eso estoy. Molaba que fueras de Vigo por que así podríamos quedar pa tocar. Yo ahora vivo en Vigo, y ya sabes por desgracia aquí hay poca afición y cuesta encontrar con quién tocar. Mi correo: dlinaresperez@yahoo.es

Tablatura de Zyryab

Tablatura de Zyryab

This popular thread has been given its own page : Tablatura de Zyryab

bajo/contrabajo flamenco

busco cualquier informacion (partituras, metodos, páginas web,...) para aprender a tocar flamenco con el contrabajo, y bajo eléctrico.
soy de madrid, muchas gracias.

Re: bajo/contrabajo flamenco

: busco cualquier informacion (partituras, metodos, páginas web,...) para aprender a tocar flamenco con el contrabajo, y bajo eléctrico.
: soy de madrid, muchas gracias.

Re: bajo/contrabajo flamenco

Ya somos dos; también estoy por los madriles

contacta y nos intercambiamos información

partituras

¿alguien me puede mandar por e-mail la partitura de las sevillanas: "Algo se muere en el alma" de amigos de gines?
GRACIAS

Estoy aprendiendo a tocar la guitarra

Que normas debo seguir para poder componer alguna cancion? Puedo mezclar los acordes a mi bola o debo seguir algun patron? Gracias

Re: Estoy aprendiendo a tocar la guitarra

: Que normas debo seguir para poder componer alguna cancion? Puedo mezclar los acordes a mi bola o debo seguir algun patron? Gracias

tu veras

El Manisero

Can anyone help find a guitar tab
for El Manisero . . .

ejecicio para rapidez de mano izquierda

quisiera aprender ejercicios para obtener rapidez, velocidad sobre todo en la mano izquierda de digitacion

QUIERO APRENDER A TOCAR LA BATERIA

QUIERO APRENDER A TOCAR LA BATERIA

This popular thread has been given its own page : QUIERO APRENDER A TOCAR LA BATERIA

Partituras Guitarra Flamenca

Se imparten clases de Guitarra Flamenca.
Todos los Niveles, Grupos Reducidos.

http://www.terra.es/personal6/guitarra_huelva/

clases de guitarra, bajo y bateria en valencia

hola, soy oscar, el bajista de kontraste, doy clases particulares de guitarra y bajo
y edu, el actual bateria de el capitan canalla da clases particulares de bateria

a todos los niveles y estilos
guitarra y bajo 10 euros la hora (en mi domicilio, zona benicalap)
bateria 12 euros la hora (en local de ensayo, zona benicalap)

interesados escribir a nukrom@ono.com

y un poco de publicidad no viene mal, esta es la web de mi grupo http://kontraste.webcindario.com donde podreis ver los conciertos que tenemos a la vista

nos veremos pronto!!

Re: clases de guitarra, bajo y bateria en valencia

Yo! fun...
i like it :)
John
<a href="http://www.toshain.com">painting</a>

busco método piano flamenco

¿Me puede indicar alguien si existe algún método de Piano Flamenco?
También me gustaría encontrar la partitura de "Salinas", de Felipe Campuzano, por si alguien me la pudiera mandar.
Gracias

Re: busco método piano flamenco

 busco método piano flamenco

This popular thread has been given its own page : Re: busco método piano flamenco

Metodo de guitarra flamenca

Hola, por fin un metodo de guitarra flamenca para todo el mundo, facil con 22 videos en uh solo CDROM, con uno de los mejores maestros de guitarra flamenca del mundo, Tientos, rumba, sevillanas, fandangos de Huelva, tanguillos de Cadiz, verdiales y tangos podras aprender sin darte cuenta. Para más informacion pponerse en contacto.

Re: Metodo de guitarra flamenca

: Hola, por fin un metodo de guitarra flamenca para todo el mundo, facil con 22 videos en uh solo CDROM, con uno de los mejores maestros de guitarra flamenca del mundo, Tientos, rumba, sevillanas, fandangos de Huelva, tanguillos de Cadiz, verdiales y tangos podras aprender sin darte cuenta. Para más informacion pponerse en contacto.

Re: Metodo de guitarra flamenca

me gustaria obtener informacion a cerca de este metodo. No se nada de guitarra. ¿Tambien puedo aprender facilmente?

Re: Metodo de guitarra flamenca

Donde se puede conseguir el metodo?

aprender unas rumbitas

Me gustaria que dieseis informacion sobre como aprender unas rumbitas con la guitarrita......Un saludo

Re: aprender unas rumbitas

: Me gustaria que dieseis informacion sobre como aprender unas rumbitas con la guitarrita......Un saludo
Hola Jose, tengo un metodo de guitarra flamenca en un solo CDROM con 22 videos donde podras aprender, rumba, sevillana, tiento, tango, fandango de Huelva, verdiales y tanguillos de Cadiz, con uno de los maestros de guitarra flamenca mas prestigiosos del mundo. Si quieres mas informacion no dudes en ponerte en contacto.

quiero desarrollar la rapidez de la mano izquierda

quisiera poder aprender metodos para la rapidez de la mano izquierda y mejorar la dijitacion

quiero aprender a dijitar

: quisiera poder aprender metodos para la rapidez de la mano izquierda y mejorar la dijitacion

Re: quiero aprender a dijitar

quiero eprender adijitar

Re: quiero aprender a dijitar

quiero aprender a dijiter

Re: quiero aprender a dijitar

: : quisiera poder aprender metodos para mejorar la dijitacion

hola a todos

si fueran tan amable me podrian mandar todas las notas y ejercicios como para aprender a tocar guitarra acoerdes lo que sea , lo mas facil de entender porfa

APRENDER A TOCAR RUMBAS EN LA GUITARRA

Me gustaria aprender a tocar rumbitas en la guitarra. Si tiene informacion o videos que me puedan servir hazmelo saber.

baile flamenco

¡¡Hola Chiquillo/a!! estoy aprendiendo a bailar flamenco, no tengo mucha gracia pero me lo paso de miedo. quisiera, bueno desearía, tocar las palmas y la caja, ¿Cómo puedo empezar? ¿hay alguna manera de marcar mejor los tiempos y los tonos? me parece que hago sonar los ritmos casi iguales. Muchas gracias por ayudarme. ¡Cuidense!

flamenco lessons

It will be great to have this resource and feel connected to the flamenco world. Looking forward to September.

alma flamenca

pues me gustaria aprender tecnicas nuevas de flamenco,y ejercicios para fortalecer las manos,y tocar mas rapido,y quiero tocar la de Caballo Negro de Manolo San Lucar.

gracias

hasta ahora

Re: alma flamenca

: pues me gustaria aprender tecnicas nuevas de flamenco,y ejercicios para fortalecer las manos,y tocar mas rapido,y quiero tocar la de Caballo Negro de Manolo San Lucar. ¿Podrían enviarme la tablatura?

: gracias

: hasta ahora

Re: alma flamenca

Caballo Negro - Manolo Sanlucar

Guitara 1

E||------------------|--12--10--9------7--9--12--10--|
B||------------------|-------------10----------------|
G||------------------|-------------------------------|
D||------------------|-------------------------------|
A||------------------|-------------------------------|
E||------------------|-------------------------------|

--9------7--9--10--9--7--5--|--10--9--7-----5--7--10--9--|
-----10---------------------|------------8---------------|
----------------------------|----------------------------|
----------------------------|----------------------------|
----------------------------|----------------------------|
----------------------------|----------------------------|

--7-----5--7--9--7--5--3--|--12--9--7--5--7--9--12--10--|
-----8--------------------|-----------------------------|
--------------------------|-----------------------------|
--------------------------|-----------------------------|
--------------------------|-----------------------------|
--------------------------|-----------------------------|

--9------7--9--10--9--7--5--|--10--7--7-----5--7--10--9--|
-----10---------------------|------------8---------------|
----------------------------|----------------------------|
----------------------------|----------------------------|
----------------------------|----------------------------|
----------------------------|----------------------------|

--7-----5--7--9--7--5--3--|--5----------5--3--2--|--3----2--0--2--0-----0--|
-----8--------------------|----------------------|-------------------3-----|
--------------------------|----------------------|-------------------------|
--------------------------|----------------------|-------------------------|
--------------------------|----------------------|-------------------------|
--------------------------|----------------------|-------------------------|

------------------|----0------------------|----------------------|
------------------|-------3--3--2----0----|-----0----------------|
------------------|-----------------------|--2-----2--0----------|
------------------|-----------------------|----------------------|
------------------|-----------------------|----------------------|
------------------|-----------------------|----------------------|

---------------------|-------------------|----0------------------|
---------------------|-------------------|-------3--3--2----0----|
---------------0--1--|--2----------------|-----------------------|
------------4--------|-------------------|-----------------------|
---------------------|-------------------|-----------------------|
---------------------|-------------------|-----------------------|

----------------------|---------------------|-------------------|
-----0----------------|---------------------|-------------------|
--2-----2--0----------|---------------0--1--|--2----------------|
----------------------|------------4--------|-------------------|
----------------------|---------------------|-------------------|
----------------------|---------------------|-------------------|

------------------|-------7-------7-------|----7---------7--5--3--|
------------------|--0---------0-------0--|---------0-------------|
------------------|-----------------------|-----------------------|
------------------|-----------------------|-----------------------|
------------------|-----------------------|-----------------------|
------------------|-----------------------|-----------------------|

--5--3--2--3------0----|------------7--5--3--|--5----3--2--3--2--0--2--|
-----------------------|---------------------|-------------------------|
-----------------------|---------------------|-------------------------|
-----------------------|---------------------|-------------------------|
-----------------------|---------------------|-------------------------|
-----------------------|---------------------|-------------------------|

----0-------0-----------|------------------------|---------------------|
---------3-----3--2--3--|----2----0--2--0-----0--|---------------------|
------------------------|------------------2-----|---------------2--1--|
------------------------|------------------------|------------2--------|
------------------------|------------------------|---------------------|
------------------------|------------------------|---------------------|

-------------------|---------------------|-------------------|
-------------------|---------------------|-------------------|
--0----------------|---------------0--1--|--2----------------|
-------------------|------------4--------|-------------------|
-------------------|---------------------|-------------------|
-------------------|---------------------|-------------------|

---------------------|-------------------|---------------------|
---------------------|-------------------|---------------------|
---------------2--1--|--0----------------|---------------0--1--|
------------2--------|-------------------|------------4--------|
---------------------|-------------------|---------------------|
---------------------|-------------------|---------------------|

-------------------|---------------------|-------------------|
-------------------|---------------------|-------------------|
--2----------------|---------------2--1--|--0----------------|
-------------------|------------2--------|-------------------|
-------------------|---------------------|-------------------|
-------------------|---------------------|-------------------|

------------------|--15-14-12-14-12-10-12-10-9-10-9-7-|
------------------|-----------------------------------|
------------------|-----------------------------------|
------------------|-----------------------------------|
------------------|-----------------------------------|
------------------|-----------------------------------|

--9-7-5-7-5-3-5-3-2-3-2-0-|--2-0---0-----------------|
--------------------------|------3---3-2-3-2-0-2-0---|
--------------------------|------------------------2-|
--------------------------|--------------------------|
--------------------------|--------------------------|
--------------------------|--------------------------|

--------------------------|-------------------|------------------------|
--0-----------------------|-------------------|------------------------|
----2-0-2-0---0-----------|-------------------|------------------------|
------------4---4-2-4-2-0-|--2----------------|----2--0--0-------0-----|
--------------------------|-------------------|-------------4-------4--|
--------------------------|-------------------|------------------------|

--------------------------|--------------------------|-------------------|
--------------------------|--------------------------|-------------------|
--------------------------|--------------------------|-------------------|
--------------------------|--------------------------|-------------------|
--2--2--4--2--0--0--2--0--|--------------------------|--0----------------|
--------------------------|--3--3--2--2--3--3--4--4--|-------------------|

---------------------|-------------------|----------------------|
---------------------|-------------------|----------------------|
---------------------|-------------------|----------------------|
---------------------|-------------------|----------------------|
---------------0-----|-------------------|----------------------|
------------0-----4--|--3----------------|--3----------2--3--4--|

-------------------|---------------------|-------------------|
-------------------|---------------------|-------------------|
-------------------|---------------------|-------------------|
-------------------|---------------------|-------------------|
--0----------------|---------------0-----|-------------------|
-------------------|------------0-----4--|--3----------------|

----------------------|-------------------|------------------|
----------------------|-------------------|------------------|
----------------------|--2----------------|------------------|
----------------------|--2----------------|------------------|
----------------------|--4----------------|------------------|
--3----------2--3--4--|--5----------------|------------------|

--12--10--9------7--9--12--10--|--9------7--9--10--9--7--5--|
-------------10----------------|-----10---------------------|
-------------------------------|----------------------------|
-------------------------------|----------------------------|
-------------------------------|----------------------------|
-------------------------------|----------------------------|

--10--9--7-----5--7--10--9--|--7-----5--7--9--7--5--3--|
------------8---------------|-----8--------------------|
----------------------------|--------------------------|
----------------------------|--------------------------|
----------------------------|--------------------------|
----------------------------|--------------------------|

--12--9--7--5--7--9--12--10--|--9------7--9--10--9--7--5--|
-----------------------------|-----10---------------------|
-----------------------------|----------------------------|
-----------------------------|----------------------------|
-----------------------------|----------------------------|
-----------------------------|----------------------------|

--10--7--7-----5--7--10--9--|--7-----5--7--9--7--5--3--|--5----------5--3--2--|
------------8---------------|-----8--------------------|----------------------|
----------------------------|--------------------------|----------------------|
----------------------------|--------------------------|----------------------|
----------------------------|--------------------------|----------------------|
----------------------------|--------------------------|----------------------|

--3----2--0--2--0-----0--|------------------|----0------------------|
-------------------3-----|------------------|-------3--3--2----0----|
-------------------------|------------------|-----------------------|
-------------------------|------------------|-----------------------|
-------------------------|------------------|-----------------------|
-------------------------|------------------|-----------------------|

----------------------|---------------------|-------------------|
-----0----------------|---------------------|-------------------|
--2-----2--0----------|---------------0--1--|--2----------------|
----------------------|------------4--------|-------------------|
----------------------|---------------------|-------------------|
----------------------|---------------------|-------------------|

----0------------------|----------------------|---------------------|
-------3--3--2----0----|-----0----------------|---------------------|
-----------------------|--2-----2--0----------|---------------0--1--|
-----------------------|----------------------|------------4--------|
-----------------------|----------------------|---------------------|
-----------------------|----------------------|---------------------|

-------------------|------------------|-------7-------7-------|
-------------------|------------------|--0---------0-------0--|
--2----------------|------------------|-----------------------|
-------------------|------------------|-----------------------|
-------------------|------------------|-----------------------|
-------------------|------------------|-----------------------|

----7---------7--5--3--|--5--3--2--3------0----|------------7--5--3--|
---------0-------------|-----------------------|---------------------|
-----------------------|-----------------------|---------------------|
-----------------------|-----------------------|---------------------|
-----------------------|-----------------------|---------------------|
-----------------------|-----------------------|---------------------|

--5----3--2--3--2--0--2--|----0-------0-----------|------------------------|
-------------------------|---------3-----3--2--3--|----2----0--2--0-----0--|
-------------------------|------------------------|------------------2-----|
-------------------------|------------------------|------------------------|
-------------------------|------------------------|------------------------|
-------------------------|------------------------|------------------------|

---------------------|-------------------|---------------------|
---------------------|-------------------|---------------------|
---------------2--1--|--0----------------|---------------0--1--|
------------2--------|-------------------|------------4--------|
---------------------|-------------------|---------------------|
---------------------|-------------------|---------------------|

-------------------|---------------------|-------------------|
-------------------|---------------------|-------------------|
--2----------------|---------------2--1--|--0----------------|
-------------------|------------2--------|-------------------|
-------------------|---------------------|-------------------|
-------------------|---------------------|-------------------|

---------------------|-------------------|---------------------|
---------------------|-------------------|---------------------|
---------------0--1--|--2----------------|---------------2--1--|
------------4--------|-------------------|------------2--------|
---------------------|-------------------|---------------------|
---------------------|-------------------|---------------------|

-------------------|------------------|--15-14-12-14-12-10-12-10-9-10-9-7-|
-------------------|------------------|-----------------------------------|
--0----------------|------------------|-----------------------------------|
-------------------|------------------|-----------------------------------|
-------------------|------------------|-----------------------------------|
-------------------|------------------|-----------------------------------|

--9-7-5-7-5-3-5-3-2-3-2-0-|--2-0---0-----------------|
--------------------------|------3---3-2-3-2-0-2-0---|
--------------------------|------------------------2-|
--------------------------|--------------------------|
--------------------------|--------------------------|
--------------------------|--------------------------|

--------------------------|-------------------|------------------------|
--0-----------------------|-------------------|------------------------|
----2-0-2-0---0-----------|-------------------|------------------------|
------------4---4-2-4-2-0-|--2----------------|----2--0--0-------0-----|
--------------------------|-------------------|-------------4-------4--|
--------------------------|-------------------|------------------------|

--------------------------|--------------------------|-------------------|
--------------------------|--------------------------|-------------------|
--------------------------|--------------------------|-------------------|
--------------------------|--------------------------|-------------------|
--2--2--4--2--0--0--2--0--|--------------------------|--0----------------|
--------------------------|--3--3--2--2--3--3--4--4--|-------------------|

---------------------|-------------------|----------------------|
---------------------|-------------------|----------------------|
---------------------|-------------------|----------------------|
---------------------|-------------------|----------------------|
---------------0-----|-------------------|----------------------|
------------0-----4--|--3----------------|--3----------2--3--4--|

-------------------|---------------------|-------------------|
-------------------|---------------------|-------------------|
-------------------|---------------------|-------------------|
-------------------|---------------------|-------------------|
--0----------------|---------------0-----|-------------------|
-------------------|------------0-----4--|--3----------------|

----------------------|-------------------|------------------|
----------------------|-------------------|------------------|
----------------------|--2----------------|------------------|
----------------------|--2----------------|------------------|
----------------------|--4----------------|------------------|
--3----------2--3--4--|--5----------------|------------------|

-------------------|--------------------------|--0--0--2--2--0--0-----2--|
-------------------|-----------------0--2--3--|--------------------3-----|
--2----------------|-----------0--2-----------|--------------------------|
-------------------|-----2--4-----------------|--------------------------|
-------------------|--------------------------|--------------------------|
-------------------|--0-----------------------|--------------------------|

--0------------------|---------------------|--------------------------|
-----3--2------------|---------------------|--------------------0--2--|
---------------------|---------------2--1--|--0-----------0--2--------|
---------------------|------------2--------|--------2--4--------------|
---------------------|---------------------|--------------------------|
---------------------|---------------------|-----0--------------------|

-----0--2--2--0--0-----2--|--2-0----------------|---------------------|
--3-----------------3-----|------3-2------------|---------------------|
--------------------------|---------------------|---------------2--1--|
--------------------------|---------------------|------------2--------|
--------------------------|---------------------|---------------------|
--------------------------|---------------------|---------------------|

--------------------------|-----------2--0--------|--------------------------|
--------------------0--2--|-----------------3--2--|--3--2--0-----2--0--------|
--0-----------0--2--------|--2--------------------|-----------2--------2--0--|
--------2--4--------------|-----------------------|--------------------------|
--------------------------|-----------------------|--------------------------|
-----0--------------------|-----------------------|--------------------------|

--------------------------|-------------------------|------------------------|
--0-----------------------|--0----3--0-----2-----0--|------------------------|
-----2--0-----2--0--------|-------------2-----0-----|---------2-----0--------|
-----------4--------4--2--|-------------------------|----4-------2-----2--0--|
--------------------------|-------------------------|------------------------|
--------------------------|-------------------------|------------------------|

-------------------|------------------|--------------------------|
-------------------|------------------|------------------------0-|
-------------------|------------------|--------------------0-2---|
-------------------|------------------|--------------0-2-4-------|
--4----------------|------------------|--2-0---0-2-4-------------|
-------------------|------------------|------3-------------------|

--------------------------|----------------------|------------------|
--0-----------------------|----------------------|------------------|
-----2--0-----0-----------|----------------------|------------------|
-----------4-----4--2--0--|--2--1--0-------------|------------------|
--------------------------|-----------4----------|------------------|
--------------------------|----------------------|------------------|

----------------------0-2-|--2--0--------------------|---------------------|
----------------0-2-3-----|--------3--2--3--2--0-----|--2--1----0----------|
------------0-2-----------|-----------------------2--|---------------------|
--4-2-0-2-4---------------|--------------------------|---------------------|
--------------------------|--------------------------|---------------------|
--------------------------|--------------------------|---------------------|

------------------|--5-3-2-3-5-7-9-10-12-14-15-15-|
------------------|-------------------------------|
------------------|-------------------------------|
------------------|-------------------------------|
------------------|-------------------------------|
------------------|-------------------------------|

--15--14--12--10--12--10--9--7--|--9----------------|--------10--14----14----|
--------------------------------|-------------------|------------------------|
--------------------------------|-------------------|------------------------|
--------------------------------|-------------------|------------------------|
--------------------------------|-------------------|------------------------|
--------------------------------|-------------------|------------------------|

--------15------15--14--12--|--14----12--10--12--9--9--10--|
--15------------------------|------------------------------|
----------------------------|------------------------------|
----------------------------|------------------------------|
----------------------------|------------------------------|
----------------------------|------------------------------|

--10----9------------|--------10--17----17----|--------15------15--14--12--|
---------------------|------------------------|--15------------------------|
---------------------|------------------------|----------------------------|
---------------------|------------------------|----------------------------|
---------------------|------------------------|----------------------------|
---------------------|------------------------|----------------------------|

--14----12--10--12--10--10--9--|--9----------19--17--15--|
-------------------------------|-------------------------|
-------------------------------|-------------------------|
-------------------------------|-------------------------|
-------------------------------|-------------------------|
-------------------------------|-------------------------|

--17----15--14--15--14--12--14--|--14--12----10--12--10--9--10--|
--------------------------------|-------------------------------|
--------------------------------|-------------------------------|
--------------------------------|-------------------------------|
--------------------------------|-------------------------------|
--------------------------------|-------------------------------|

----9----7--9--7--5--7--|--7--5----3--5--3--2--3--|----2----0--2--0-----0--|
------------------------|-------------------------|------------------3-----|
------------------------|-------------------------|------------------------|
------------------------|-------------------------|------------------------|
------------------------|-------------------------|------------------------|
------------------------|-------------------------|------------------------|

------------------------|-------------------------|-------------------|
----3----2--3--2--0--2--|--2--0-------0-----------|-------------------|
------------------------|----------2-----2--1--2--|--2----------------|
------------------------|-------------------------|-------------------|
------------------------|-------------------------|-------------------|
------------------------|-------------------------|-------------------|

---------------------|---------------------|----------------------|
---------------------|-----0---------------|----------------------|
---------------2--2--|--2-----0------------|--0-------------0--1--|
------------2--------|---------------------|-------------4--------|
---------------------|---------------------|----------------------|
---------------------|---------------------|----------------------|

-------------------|----------------------|---------------------|
-------------------|----------------------|-----0---------------|
--2----------------|--2-------------2--2--|--2-----0------------|
-------------------|-------------2--------|---------------------|
-------------------|----------------------|---------------------|
-------------------|----------------------|---------------------|

---------------------|-------------------------|-------------------------|
---------------------|----------0--0--2--2--3--|--3----2--2--0--0--------|
---------------0--1--|--2----2-----------------|-------------------2--2--|
------------4--------|-------------------------|-------------------------|
---------------------|-------------------------|-------------------------|
---------------------|-------------------------|-------------------------|

---------------------|----------------------|----------------------|
--0------------------|----------------------|----------------------|
-----2--0------------|--0-------------0--1--|--2------------2-2--2-|
---------------------|-------------4--------|----------------------|
---------------------|----------------------|----------------------|
---------------------|----------------------|----------------------|

--------------------------|----------------------|----------------------|
-------0-0--0-0----2-2--2-|--2--0----------------|----------------------|
--2-----------------------|--------2--0----------|--0-------------0--1--|
--------------------------|----------------------|-------------4--------|
--------------------------|----------------------|----------------------|
--------------------------|----------------------|----------------------|

-------------------|------------------|--12--10--9------7--9--12--10--|
-------------------|------------------|-------------10----------------|
--2----------------|------------------|-------------------------------|
--2----------------|------------------|-------------------------------|
--0----------------|------------------|-------------------------------|
-------------------|------------------|-------------------------------|

--9------7--9--10--9--7--5--|--10--9--7-----5--7--10--9--|
-----10---------------------|------------8---------------|
----------------------------|----------------------------|
----------------------------|----------------------------|
----------------------------|----------------------------|
----------------------------|----------------------------|

--7-----5--7--9--7--5--3--|--12--10--9------7--9--12--10--|
-----8--------------------|-------------10----------------|
--------------------------|-------------------------------|
--------------------------|-------------------------------|
--------------------------|-------------------------------|
--------------------------|-------------------------------|

--9------7--9--10--9--7--5--|--10--9--7-----5--7--10--9--|
-----10---------------------|------------8---------------|
----------------------------|----------------------------|
----------------------------|----------------------------|
----------------------------|----------------------------|
----------------------------|----------------------------|

--7-----5--7--9--7--5--3--|--12--10--9------7--9--12--10--|
-----8--------------------|-------------10----------------|
--------------------------|-------------------------------|
--------------------------|-------------------------------|
--------------------------|-------------------------------|
--------------------------|-------------------------------|

--9------7--9--10--7--5--5--|--10--9--7-----5--7--10--9--|
-----10---------------------|------------8---------------|
----------------------------|----------------------------|
----------------------------|----------------------------|
----------------------------|----------------------------|
----------------------------|----------------------------|

--7-----5--7--9--7--5--3--|--12--10--9------7--9--12--10--|
-----8--------------------|-------------10----------------|
--------------------------|-------------------------------|
--------------------------|-------------------------------|
--------------------------|-------------------------------|
--------------------------|-------------------------------|

--9------7--9--10--7--5--5--|--10--9--7-----5--7--10--9--|
-----10---------------------|------------8---------------|
----------------------------|----------------------------|
----------------------------|----------------------------|
----------------------------|----------------------------|
----------------------------|----------------------------|

--7-----5--7--9--7--5--3--|--5----------------||
-----8--------------------|--5----------------||
--------------------------|--6----------------||
--------------------------|-------------------||
--------------------------|-------------------||
--------------------------|--5----------------||

Quiero aprender guitarra flamenca

Quiero aprender guitarra flamenca

This popular thread has been given its own page : Quiero aprender guitarra flamenca

UN BUEN MAESTRO QUE TE PULA EN LA GUITARRA

ESTOY BUSCANDO DESESPERADAMENTE UN BUEN MAESTRO QUE MEREZCA LAPENA PARA ALUMNOS DE NIVEL MEDIO-ALTO,DE ENTRE HUELVA O SEVILLA,ESPERO SU RESPUESTA,GRACIAS

ME GUSTARIA APRENDER A TOCAR SEVILLANAS Y RUMBAS CON LA GUITARRA

ME GUSTARIA APRENDER A TOCAR SEVILLANAS Y RUMBAS CON LA GUITARRA

This popular thread has been given its own page : ME GUSTARIA APRENDER A TOCAR SEVILLANAS Y RUMBAS CON LA GUITARRA

ejercicios para aprender flamenco

a ver quien me puede ayudar con esto porque necesito ejercicios y ritmos para aprender flamenco hay porfas el que me pueda decir algunos tips se lo agradeceria

Re: ejercicios para aprender flamenco

Yo! fun...
i like it :)
John
<a href="http://www.toshain.com">painting</a>

Re: ejercicios para aprender flamenco

: Yo! fun...
: i like it :)
: John
: <a href="http://www.toshain.com">painting</a>

Re: ejercicios para aprender flamenco

me gusta muchisimo aprender a tocar flamenco guitara
: : <a href="http://www.toshain.com">painting</a>

No puedo ver las respuestas de los mensajes

Hola

No puedo ver las respuestas de los mensajes, sabeis porque?

Un Salu2

metodo cifradode sevillanas para guitarra

metodo cifradode sevillanas para guitarra

This popular thread has been given its own page : metodo cifradode sevillanas para guitarra

Tarik Tabs

Where can I find tabs for the turkish artist "Tarik"?

Re: Tarik Tabs

: Where can I find tabs for paco de lucia

Post new comment

The content of this field is kept private and will not be shown publicly.
CAPTCHA
This question is for testing whether you are a human visitor and to prevent automated spam submissions. Do not include any spaces in your answer.
Image CAPTCHA
Copy the characters (respecting upper/lower case) from the image.

Contact | Advertise | Contents | Privacy Policy | Forum

This site is published by Hitsquad Pty Ltd. Copyright © 1999 - 2017 , All Rights Reserved.