Britpop Guitar Archive

Britpop Guitar Archive

NIce British sheet music

A lot of tabs of Manics, Oasis, Radiohead, Gomez, Suede, The Stone Roses, The Verve and many more!

Comment viewing options

Select your preferred way to display the comments and click "Save settings" to activate your changes.

Buena Vista Gomez tab please

does anyone have/ know a tab for Buena Vista by Gomez?
If so can you email to me on aidan_w15@hotmail.co.uk plese
Aidan

tab

hi i need the guitar tabs for 'put the blame on mame ' from Rita Hayworth if any one have it.
Thanks
J

songs that weaken the bladder

anyone got any razorlight (golden touch), strokes (reptilia) or anything by the futureheads or bloc party? if anyone has the chords to "cannonball" by damien rice, i will piss my pants

lambchop

looking for lambchop something's going on chords

looking for Gomez Buena vista tab

Does anyone have the tab for gomez buena vista? If so please could you send it to me at Brettleeuk@yahoo.com

Thanks...

Mark Eitzel's "To The Sea" HELP!

Hey,

Dont know if anyones even heard this song, but I am in depserate need of a tab for it. Please? Pllllleeeeeeeeeeeaaaaaaase?
I would attempt to tab it myself, but I am horrible at that sort of thing...
Any help would be muchly appreciated.
Thanks.

Badly drawn boy

I am looking for the tabs of "all possibilities" from badly drawn boy for a long time. So please if someone have them...

JAPAN"ROHDESIA..."TAB

I NEED "ROHDESIA..."/JAPAN TAB OR CHORDS

JAPAN"SUBURBAN_BERLIN"TAB

I NEED "SUBURBAN BERLIN"/JAPAN TAB OR CHORDS

pale foutains--reach

please provide me pale_foutains"reach"guitar tab

Re: pale foutains--reach

U can find it on the following link :
www.ultimate-guitar.com/ tabs/p/pale_fountains/reach_crd.htm

Re: pale foutains--reach

Anybody got Pale Fountains Jeans Not Hapenning TAB ?

Turin Brakes - Painkiller chords

does anyone know where to find the tablature for painkiller or stone thrown?????????? xxxxx

Re: Turin Brakes - Painkiller chords

: does anyone know where to find the tablature for painkiller or stone thrown?????????? xxxxx

Turin Brakes - Pain Killer
---------------------------

D/F# chord = (2x0230)

intro then...

A G
Batten up the hatches here comes the cold
i can feel it creeping, its making me old D
you give me so much love that it blows my brains out

A G
you need something better than the bacon and eggs
the creaking in the walls and the banging in the bed
you give me so much love that it blows my brains out

chorus:
E C#m D/F#
summer rain, dripping down your face again
summer rain,praying someone feels the same
take the painkiller,cycle on your bicycle
leave all this misery behind

A G
my love giving me head feeling very guilty breaking the bread
loosing my touch an im taking the world on

A G
so baten up the hatche sits making me old
i can feel it creepin its makin me old
you give me so much love that it blows my brains out

chorus:
E C#m D/F#
summer rain, dripping down your face again
summer rain,praying someone feels the same
take the painkiller,cycle on your bicycle
leave all this misery behind

my love x4 .....

chorus x2 :

E C#m D/F#
summer rain, dripping down your face again
summer rain,praying someone feels the same
take the painkiller,cycle on your bicycle
leave all this misery behind

leave all this misery behind x 10

-----------------------------------
i put this tab together from bits found on the web and by ear, it sounds pretty close to me.
im not sure of the intro, maybe just try picking the A and G chords.----found this

Re: Turin Brakes - Painkiller chords

: does anyone know where to find the tablature for painkiller or stone thrown?????????? xxxxx

for pain killer is
verse : a - g
chorus : e-Cm-d-e-Bm-d
but im looking to for stone thrown and i cant find it can you help me back

Need Gomez chords,anybody?

Need Gomez chords,anybody?

Re: Need Gomez chords,anybody?

: Need Gomez chords,anybody?

HEY MATE JUNGLE IN AUSTRALIA HERE.I CANT FIND ANY CHORDS TABS OR VIDS TELLING ME HOW TO PLAY FREE TO RUN ONE OF MY ALL TIME FAVS.IM FROM SCOTLAND AND AM LEARNING A FEW TUNES TO TRY AN EDUCATE THE AUSSIES MO0ST OF WHO HAVENT HEARD OF GOMEZ?I KNOW.BOTTOM OF THE WORLD THOUGH SO WHAT YOU GONNA DO?WOULD APPRECIATE ANY HELP YOU CAN GIVE ME MATE AND LET ME KNOW WHAT YOU ARE LOOKIN FOR AND IF I CAN ILL SEND YOU CHORDS BACK.CHEERS .JUNGLE

Re: Need Gomez chords,anybody?

yeah i do. do you have one to We havent Turned Around?

Cast - Walk Away

Does anybody have the chords for this song? Could i have them please.

Re: Cast - Walk Away

: Does anybody have the chords for this song? Could i have them please.

I can email you them.

morcheeba tabs or chords

if you can send me some morcheeba's tabs i would be very grateful...
propobly i'm borring with this...

be yourself

En la pagina que pongo a continuacion esta el tabulado de morcheeba "Be yourself" :
http://www.geocities.com/allmusicacademy/febtab2001.html

NUNCA MAIS el q entienda q se entere.

Re: morcheeba tabs or chords

 morcheeba tabs or chords

This popular thread has been given its own page : Re: morcheeba tabs or chords

Re: morcheeba tabs or chords

http://www.guitartabs.cc/tabbrowse.shtml?path=/m/morcheeba/

"never let you down" by the verve pipe

If anyone has it, please send it to me.
Thanks

need proper tab for muse newborn!!!!

does anyone have the proper tab for muse newborn? i need to find otu the verse and chours etc , main riff i have. help me to find it!

stranglers

looking for tabs/chords to skin deep, let me down easy

Re: stranglers

www.geocities.com/strangledchords

This is my own personal Stranglers guitar tab archive site. Enjoy!

scritti politti tabs

scritti politti tabs

This popular thread has been given its own page : scritti politti tabs

Hotel California

hey people having the same shitty problems i had with the only tabbed version of hotel california on the net, yeah you'll find it in most places like olga, harmony central and all the other useless guitar tab sites put together by talentless twats, however there is one way of getting a note perfect version of hotel california by the eagles, let me tell you it has everything , all guitars even drum tablature and the solo kicks ass wwwwwoooooooo hooooooo bring it to the hole!

chords

i need morissey chords

Re: chords

: i need Colsplay chords

Charlatans chords?

Can someone send me chords for a song from "Us & Us only". I'm after one called "The Blonde Waltz". Thanks in advance.

S Club 7

Can anybody send me the Song 'Have you ever' by S Club 7 with Chords? It's very important! Please send me the Song quickly! Thank you all!

stephen malkmus

I can't find any Stephen Malkmus tabs and I'm getting annoyed. If anyone can help me I would appreciate it. Thanks!

Malkmus, Delgados, Gorky's, other grate band here

http://www.pop-page.net

I hope that works. The site's in Spanish, but it's not too hard to navigate.

try this site for chords and tab!!....

..try this site out people -it's superb!!!
let me know how u get on
www.olga.net

Anyone got any Charlatans tabs?

guitar, bass or keyboard.
please at least give me god links if you then havent got any tabs.

Re: Anyone got any Charlatans tabs?

: guitar, bass or keyboard.
: please at least give me god links if you then havent got any tabs.

www.tabtalk.com have got a few charlatans tabs and they should be getting bass and keyboard tabs soon.

godspeed you black emperor tabs

anytinhg from lift yr. skinny fists like antennas...album

Re: godspeed you black emperor tabs

I own a godspeed you black emperor tabs site:

www.sadmafioso.tk

Re: godspeed you black emperor tabs

: anytinhg from lift yr. skinny fists like antennas...album

i would like (if it's possible) a lot of tabs of godspeed, thanks a lot :)

I need Turin Brake Tabs Please

Especialy the solo on "Save Me" (underdog)

Your Wish = my command

SOLO: The bars every so often are nothing to do with time so just keep at a steady pace.

Bm7 A G Bm7 A G
|------7-7----------7-10-7-7-10~~--|-12-12-12-----------------------------------------------------|
|-----7----10-7/12~----------------|----------10--------------------------------------------------|
|----7-----------------------------|-------------11\4--7-4-9~-7~~---------------------------------|
|----------------------------------|------------------------------9-7-----------------------------|
|----------------------------------|----------------------------------9-8-7---------7~~------7\\--|
|----------------------------------|----------------------------------------10p7-10-----10\\------|

Bm7 A G
|-----------------------------0-2h3p0-2h3p0-2h3p0--------10--------7-------10----12b14-12-10----|
|--0-2h3p0-2h3p0-2h3p0-2h3p0----------------------7-8-10----7-8-10---10/12----12-------------12-|
|-----------------------------------------------------------------------------------------------|
|-----------------------------------------------------------------------------------------------|
|-----------------------------------------------------------------------------------------------|
|-----------------------------------------------------------------------------------------------|

Bm7 A G
|--12b14-12-10----12b14-12-10----12b14-12-10----12b14-12-10----12b14-12-10--------------------------|
|--------------12-------------12-------------12-------------12-------------12--10\7-5h7p5---5-------|
|-----------------------------------------------------------------------------------------7---7\4~--|
|---------------------------------------------------------------------------------------------------|
|---------------------------------------------------------------------------------------------------|
|---------------------------------------------------------------------------------------------------|

THEN THE CHORDS GO BACK TO THE CHORUS CHORDS AND RIFF WITH ANOTHER SOLO OVER IT:

A Dmaj9/F# G E
|--------------------8----8/10-|-10b12-8-10-8----------------------|
|--------5--8-5-8/10---10------|--------------10p8-10~-8-----------|
|------6-----------------------|-------------------------9--8-7~~--|
|--5h7-------------------------|-----------------------------------|
|------------------------------|-----------------------------------|
|------------------------------|-----------------------------------|

A Dmaj9/F# G E A Dmaj9/F# G E
|-----------------------------10b12-8-10p8----------------|--------5---------5----------5-----------7------|
|-------------------8---10~----------------10p8-10-10~\\--|------5-------7-----7----8-----8-----9-----9----|
|-----------------9---9-----------------------------------|----6-----6h7---7------7---7-----7/9---9-----9--|
|--10--7----7-10------------------------------------------|--7---------------------------------------------|
|--------10-----------------------------------------------|------------------------------------------------|
|---------------------------------------------------------|------------------------------------------------|

A Dmaj9/F# G D/F# E
|---------7---------------10----------15-----14--------12----12----12----12----12----12----12----12--|
|----10-----10------10-------10----10----15-----15--12----12----12----12----12----12----12----12-----|
|--9----9------9/11----11-------11-------------------------------------------------------------------|
|----------------------------------------------------------------------------------------------------|
|----------------------------------------------------------------------------------------------------|
|----------------------------------------------------------------------------------------------------|

End on Bm7

|--2---|
|--3---|
|--2---|
|--4---|
|--2---|
|------|

need a Muse-Hypermusic tab please

need a Muse-Hypermusic tab please

Any Morcheeba chords??????

Does anyone out there have ANY chords for ANY morcheeba songs? I've searched everywhere and can find nothing. Is there a morcheeba chord book around?

Re: Any Morcheeba chords??????

: Does anyone out there have ANY chords for ANY morcheeba songs? I've searched everywhere and can find nothing. Is there a morcheeba chord book around?

Re: Any Morcheeba chords??????

I wanna play something from Morcheeba too
But I couldn't find s.th. in the net
Please help me
Morcheeba is my life
D'Mahner(Manuel)

Re: Any Morcheeba chords??????

: : Does anyone out there have ANY chords for ANY morcheeba songs? I've searched everywhere and can find nothing. Is there a morcheeba chord book around?

Re: Any Morcheeba chords??????

"Part of the process":

Starts with a D9 as follows: xx3231, where the first "3" in the sequence goes to 2, then 0, then the 2nd "x" in the sequence goes to 3, then 0. This is the basic riff. Then the other chords are D, A, C and G so that in the chorus you start with D, then A, then C then G, and then you go back to the original D9 riff. Where you have a bridge, try some of the above chords and you're there. Very basic way of doing it, not the best, but works well if you learn to play it. You can find in soulseek a version of the song which is acoustic and you can hear how they do it. It's where I worked it out from. Glad to be of help. Let me know if you need the mp3 and I'll send it to you. Later x

Post new comment

The content of this field is kept private and will not be shown publicly.
CAPTCHA
This question is for testing whether you are a human visitor and to prevent automated spam submissions. Do not include any spaces in your answer.
Image CAPTCHA
Copy the characters (respecting upper/lower case) from the image.

Contact | Advertise | Contents | Privacy Policy | Forum

This site is published by Hitsquad Pty Ltd. Copyright © 1999 - 2017 , All Rights Reserved.