Guitar God

Guitar God

Awesome Tabs

This website about Carlos Santana is no longer available, however we've left this listing here because there are some excellent discussions and TABs available below.

Carlos Santana holding his signature PRS Santana MD

Pictured above: Carlos Santana holding his signature PRS Santana MD

Comment viewing options

Select your preferred way to display the comments and click "Save settings" to activate your changes.

What Bass guitar and strings does the bassist play???

I want to know what bass guitar the bassist plays and the strings he uses.

tab for the calling by santana and eric clapton

could anyone send me "the Calling" tab

Santana-Clapton-TheCalling

Could anyone send me the tab of "The calling"? Thank you

El Morocco Tab!

does ne one know where to get the tab for el morocco (off the album moonflower) cuz i cant find it n e where :(

El Morocco Tab!

does ne one know where to get the tab for el morocco (off the album moonflower) cuz i cant find it n e where :(

tab!!!

I need The National Anthem guitar tab... in two days!!!

Re: tab!!!

fuk u

i need guit tabs for the decline by nofx

please help me with it thanx for all

santana tab love is you

Hey, I'm looking for a tab of love is you by santana and chester thompson. It seems to be very rare. Can anyone give my an idea where i could find it or does anyone have it?
Thanks..

Re: santana tab love is you

Hi Ralf. Here you have it

Song Title: Love Is You
Artist/Band: Santana
Album: Spirits Dancing In The Flesh, 1990.

Tab by JC Rea(jcrp_21@hotmail.com)

Symbols:

h=hammer-on
p=pull-off
/=slide-up
\=slide-down
~=left hand vibrato
b=bend

e|---------------|--------------------8-10--|
B|---------------|-------8-10--8h10p8-------|
G|-7h9--7-5------|-7h5-5--------------------|
D|----------7-5--|--------------------------|
A|---------------|--------------------------|
E|---------------|--------------------------|
0:03

e|-15h17-15----------------|
B|----------17p15--13h15---|
G|-------------------------|
D|-------------------------|
A|-------------------------|
E|-------------------------|
0:12

e|--------------------------------|
B|---------------------8----------|
G|-----5---9--7h9-7--7---7h9p7h9--|
D|-5h7---7------------------------|
A|--------------------------------|
E|--------------------------------|
0:18

e|---------------------------------------|
B|----------------------------8----------|
G|--------5----7h9--7h9-7---7---7h9p7h9--|
D|-5-5--7---7----------------------------|
A|---------------------------------------|
E|---------------------------------------|
0:28

e|----------------------------------------------|
B|------8-10------------------------------------|
G|-9-10-------7h9--7---7h9--10/12-12---7-5h7p5--|
D|-----------------------------------5----------|
A|----------------------------------------------|
E|----------------------------------------------|
0:37

e|---------------------------------------------|
B|----------------------------8h10--8h10p8~~~--|
G|-5--7--9--9/10--7---9/10--7------------------|
D|------------------5--------------------------|
A|---------------------------------------------|
E|---------------------------------------------|
0:47

e|-----------12p10--8h10-----------------------|
B|------8-10-----------------------------------|
G|-9-10-------------------7-9--10/12-12-5h7-5--|
D|---------------------------------------------|
A|---------------------------------------------|
E|---------------------------------------------|
0:56

e|--------------------------------|
B|--------------------------------|
G|-5--7--9--9/10--7---9/10--7--9--|
D|------------------5-------------|
A|--------------------------------|
E|--------------------------------|
1:07

e|------------------------------|
B|------------------------------|
G|------5---5h7-----------------|
D|-5--7---7------7--5h7--5h7p5--|
A|------------------------------|
E|------------------------------|
1:16

e|-------8h10--|-15h17-------15------------------|
B|-8h10--------|-------17-15----17--13h15p13h15--|
G|-------------|---------------------------------|
D|-------------|---------------------------------|
A|-------------|---------------------------------|
E|-------------|---------------------------------|
1:20

e|-----------------------------------|
B|---------------------8-------------|
G|-----5---9--7h9-7--7------7h9p7h9--|
D|-5h7---7---------------------------|
A|-----------------------------------|
E|-----------------------------------|
1:31

e|-----------------------------------|
B|------------------------8----------|
G|--------5---9--7h9-7--7----7h9~~~--|
D|-5-5--7---7------------------------|
A|-----------------------------------|
E|-----------------------------------|
1:41

e|-----------------------------------------------|
B|------8-10-------------------------------------|
G|-9-10-------7h9--7---7--9--10/12---7--5h7p5----|
D|---------------------------------5----------7--|
A|-----------------------------------------------|
E|-----------------------------------------------|
1:50

e|---------------------------------------|
B|---------------------------8h10--8~~~--|
G|-5--7--9--9/10--7--9/10-7--------------|
D|---------------------------------------|
A|---------------------------------------|
E|---------------------------------------|
2:00

e|---------------------------------------------------------------|
B|------8-10----------------------9b10----------5----------------|
G|-9-10-------7h9-7--7-9-10/12-12------7-5--7-5---7-5-----5-7-5--|
D|----------------------------------------------------7-5--------|
A|---------------------------------------------------------------|
E|---------------------------------------------------------------|
2:09

e|-------------------------|
B|-------------------------|
G|-9/10--7--9/10--7---9----|
D|----------------------5--|
A|-------------------------|
E|-------------------------|
2:21

e|-----------------------------------|
B|-----------------------------------|
G|-4--4h5h7p5----5--7----------------|
D|-------------7------7--5h7--5h7p5--|
A|-----------------------------------|
E|-----------------------------------|
2:29

e|-----8h10------8--10--12-12-12-12-12-12-12-10-8-10--8h10--|
B|-10---------10--------------------------------------------|
G|----------------------------------------------------------|
D|----------------------------------------------------------|
A|----------------------------------------------------------|
E|----------------------------------------------------------|
2:39

e|-7--7-------------|
B|------8---8h10p8--|
G|--------8---------|
D|------------------|
A|------------------|
E|------------------|
2:45

e|----------------------------------------|
B|------8-10------------------------------|
G|-9-10------7h9-7--7-9-10/12-12--7-5h7p--|
D|----------------------------------------|
A|----------------------------------------|
E|----------------------------------------|
2:48

e|-----------------------------|
B|--------------------8h10--8--|
G|-5-7-9/10-7--9/10-7----------|
D|-----------------------------|
A|-----------------------------|
E|-----------------------------|
2:58

e|--------------------------------------8-10-12-12--13-15--|
B|-------8------------------------10-12--------------------|
G|-9--10------------------9-10-12--------------------------|
D|----------------9-10-12----------------------------------|
A|----------10-12------------------------------------------|
E|---------------------------------------------------------|
3:07

e|-22-22-22-22-22-22-22-22--20--------|
B|-----------------------------22-20--|
G|------------------------------------|
D|------------------------------------|
A|------------------------------------|
E|------------------------------------|
3:14

e|------------------------|
B|------------------------|
G|-9h10--7----9h10--7--9--|
D|------------------------|
A|------------------------|
E|------------------------|
3:19

e|------------------|
B|------------------|
G|-7/9--7--5---5h7--|
D|-----------7------|
A|------------------|
E|------------------|
3:27

e|---------------------------|
B|---------------------------|
G|------5---7----------------|
D|-5--7---7---5/7--5/7--5h7--|
A|---------------------------|
E|---------------------------|
3:30

e|------8h10--|
B|-8h10-------|
G|------------|
D|------------|
A|------------|
E|------------|
3:36

e|-15-12h15-12h15p12h15p12h15p12h15p12h15p12h15p12h15p12h15p12h15h15p12h15--|
B|--------------------------------------------------------------------------|
G|--------------------------------------------------------------------------|
D|--------------------------------------------------------------------------|
A|--------------------------------------------------------------------------|
E|--------------------------------------------------------------------------|
3:38

e|-15/17--15/17--17-17-17-17--|
B|----------------------------|
G|----------------------------|
D|----------------------------|
A|----------------------------|
E|----------------------------|

e|-17-15-----------17---------------------|
B|-------17--15h17----17-15--13h15p13h15--|
G|----------------------------------------|
D|----------------------------------------|
A|----------------------------------------|
E|----------------------------------------|

e|-17--20\19--20\19--20\19----------17--|
B|--------------------------20--17------|
G|--------------------------------------|
D|--------------------------------------|
A|--------------------------------------|
E|--------------------------------------|
3:48

e|-17--20\19--20\19--22-22-22-22-22-22-22--|
B|-----------------------------------------|
G|-----------------------------------------|
D|-----------------------------------------|
A|-----------------------------------------|
E|-----------------------------------------|. . . END
3:53

Comments: jcrp_21@hotmail.com

"EL farol" tab other then the 1 in www.olga.net

i need the solo for el farol...the tab that is in olga.net is correct but the solo is hard 2 play because the rythm is not noted and which notes r 2 be played 2gether.....plz help...

A site dedicated to McLaughlin's collaboration with Carlos Santana

Your all welcome to check out my LDS website. A site dedicated to Mahavishnu John McLaughlin's collaboration with Carlos Santana.

http://www.angelfire.com/jazz/Santana73McLaughlin/index.html

Pierrot

Flame Sky Tabs

I've tried in vain to find Flame Sky tabs - can someone please send me them, or work it out for me. Thanks.

Search For Alex Fox

I'm looking for Alex Fox guitar tablature

Re: Search For Alex Fox

: I'm looking for Alex Fox guitar tablature

Re: Search For Alex Fox

: : I'm looking for Alex Fox guitar tablature

me 2.

El farol

hi guys!!! i really really need tabs for El farol by Carlos Santana, off the Supernatural Cd PLEASE!!!!!!!

Hi

: hi guys!!! i really really need tabs for El farol by Carlos Santana, of The song Waiting from the Album Soul Szacrifire

Re: El farol

: hi guys!!! i really really need tabs for El farol by Carlos Santana, off the Supernatural Cd PLEASE!!!!!!!

Hi. There's a tab of the "El Farol" song in the site www.olga.net.

santana&eric clapton "the calling"

I'm looking for the free tabs for the song "the Calling". It's found on the album supernatural. Santana plays it together with Eric Clapton and it's a great song. I hope that someone could help me.

ETAB.COM is for sale

Thought we'd drop you a note and let you know ETAB.COM is available for purchase if you're interested. Send us an offer and we'll see if we can't get this domain name to you.

europa tabs

if any one has tabs to europa please email them to me at Eddiemlb51@aol.com

Re: europa tabs

: if any one has tabs to europa please email them to me at Eddiemlb51@aol.com

Re: europa tabs

: : if any one has tabs to europa please email them to me at Eddiemlb51@aol.com

Re: europa tabs for guitar

: : : if any one has tabs to europa please email them to me at Eddiemlb51@aol.com

Re: europa tabs

: : if any one has tabs to europa please email them to me at Eddiemlb51@aol.com

Re: europa tabs

: : : could somebody please send me the Prozzak - Europa tab... somebody has to have it somewhere. my e-mail is banunoo@hotmail.com

Re: europa tabs

I need the tabs of Europa! Please email them to me at impulse@gmx.li

Flor D'Luna

Where can I find tabs for Flor D'Luna(MoonFlower)?

Re: Flor D'Luna

: Where can I find tabs for Flor D'Luna(MoonFlower)?

Re: Flor D'Luna

: : Where can I find chords for Flor D'Luna(MoonFlower)?

Re: Flor D'Luna

Flor D'Luna Tabbed By Nick Wellings, nickwellings@hotmail.com
Intro: played in a bright stacatto way with feeling.
Add some moody reverb/echo and select a clean warm tone with the pickup selector
towards the neck pickup on a stratocaster, or pointing down on a Les Paul Style guitar.
0:00 Cd time
(0:05)
e----------10--------------------10------------------------------|
B-------10-----13p11---10vv--------------13--11--10b11r10--------|
G------------------------------------------------------------12\-|
D-12-------------------------------------------------------------|
A----------------------------------------------------------------|
E----------------------------------------------------------------|

0:08 (0:12)
e--------------------------------------------------10v-----------|
B--------------------10\--------10--11--13--11p10----------------|
G-9--10--12----10-9----------------------------------------------|
D----------------------------------------------------------------|
A----------------------------------------------------------------|
E----------------------------------------------------------------|

(0:16)
e---------------------|
B-----10-10/11--10----|
G-12----------12------|
D---------------------|
A---------------------|
E---------------------|

(0:17) (0:22)
e-------------------------------------------------------------|
B-------------------------------------------------------------|0
G--(10)--10/12--(14)14\12---10--12---9--10---12---9-----------|/
D----------------------------------------------------10h12----|0
A-------------------------------------------------------------|
E-------------------------------------------------------------|

(0:47)
(1:02)
e-----------------------10vv------15--13-12h13--15-12b13r12-|
B--------10--11--13-----------------------------------------|
G-----------------------------------------------------------|
D-----------------------------------------------------------|
A-----------------------------------------------------------|
E-----------------------------------------------------------|

(1:11)
e---------------------------|
b-13-13p10-13h15-13h15-13---| *******Missing******
G---------------------------|Repeat
D---------------------------|
A---------------------------|
E---------------------------|

(1:16)
e-----------------------------------------------|Piano Enters
b-----------------------------------------------|Rhythm pattern
G---12---10--9v-----9--10---12---10-------------|changes to more
D-------------------------------------10h12-----|percussive beat
A-----------------------------------------------|
E-----------------------------------------------|

Middle Solo (1:24)
e-----------------------------|
B-10------11--10------10------|
G-----------------12----------|
D-----------------------------|
A-----------------------------|
E-----------------------------|
*sharp hard note throughout* (1:31)
e------------------10*----------------------------------------|
B-------10--11-10--------10-----------------------------------|
G-----------------------------12v-----(12)--15p12h15--14------|
D-------------------------------------------------------------|
A-------------------------------------------------------------|
E-------------------------------------------------------------|

(1:34)
e------------------------------------10*----------------------|
B-11--10-----------------11---11p10-------9/10----------------|
G---------12---------10---------------------------12----------|
D-------------------------------------------------------------|
A-------------------------------------------------------------|
E-------------------------------------------------------------|

(1:38)
e-------------------------------|
B----121212h14--10----10--------|
G------------------12----12-----|
D-------------------------------|
A-------------------------------|
E-------------------------------|

(1:40)
e--------------------------------|
B--------------------------------|
G--------------------------------|
D--------------------------------|
A---------(12)---10-----10--12---|
E-------------------12-----------|

(1:47)
e---------------------10-----------12--------------12-----12bh13|
B------------10----10----10-----10----10--10--10-------10-------|
G------9h10-----------------------------------------------------|
D----12---------------------------------------------------------|
A--12-----------------------------------------------------------|
E---------------------------------------------------------------|

pluck bent 13 five more times and on the fifth time
e---13p12p10--10--------------------------|
B----------------13p10--------------------|
G----------------------12p10-----10-9-----|
D-------------------------------------12--|
A-----------------------------------------|
E-----------------------------------------|

(1:53)
e-------------------------------------------------------------|
B-------------------------------------------------------------|
G-10--1212-----10--1212-----10--1212-----10h12-----10--1212---|
D-------------------------------------------------------------|
A-------------------------------------------------------------|
E-------------------------------------------------------------|

(1:55)
e---------------------------10------------|
B---------------------------------13p10---|
G--------------10h12b13r12----------------|
D-----------------------------------------|
A-----------------------------------------|
E-----------------------------------------|

(1:57) repeat 13h15b 7 times, slightly speeding up then:
e---------------------------13h15b------------------15p13p10--|
B-------------------------------------------------------------|
G-12p10\9-----(12p10)-----------------------------------------|
D-----------12------------------------------------------------|
A-------------------------------------------------------------|
E-------------------------------------------------------------|
five times-slowish+ seven times fast
e-10------------------13p12----13p12----13p12p10----13p12p10--|
B-----13---10---------------10--------------------------------|
G--------------12b13------------------------------------------|
D-------------------------------------------------------------|
A-------------------------------------------------------------|
E-------------------------------------------------------------|

(2:10)
e--13---12---10---13p12h13--10---13p12--13/17-|
B---------------------------------------------|
G---------------------------------------------|
D---------------------------------------------|
A---------------------------------------------|
E---------------------------------------------|

e|-17h18---17---15---20---18--17-17---17\-----|
B|--------------------------------------------|
G|--------------------------------------------|
D|--------------------------------------------|
A|--------------------------------------------|
E|--------------------------------------------|

Slow 3 times Fast 5 times
e-10/12-1212---15 10--13-10h12--10--13p12p10h13-----13p12p10h13|
B-----------------------------13-------------------------------|
G--------------------------------------------------------------|
D--------------------------------------------------------------|
A--------------------------------------------------------------|
E--------------------------------------------------------------|

Ascending Octave Run
(2:25)(Not sure if this is Carlos)
e|------------------------------------|
B|------------------------------------|
G|------------------------7-6---7h9-7-|
D|---------5---7--5--8-7--------------|
A|-5--8--7---8------------------------|
E|------------------------------------|

(2:31)
e--------------10---13--12--(10)h12--------------10------------|
B--10--11--13------------------------13p10---13------13--------|
G--------------------------------------------------------------|
D--------------------------------------------------------------|
A--------------------------------------------------------------|
E--------------------------------------------------------------|

e----------------------10------------|
B---12b13r12\-9--10--12-----10h11p10-|
G------------------------------------|
D------------------------------------|
A------------------------------------|
E------------------------------------|

e-----------10------15---13--12--15 13h15--------------|
B-10-11-13---------------------------------15bv17------|
G------------------------------------------------------|
D------------------------------------------------------|
A------------------------------------------------------|
E------------------------------------------------------|

(2:55)
e|-----------------------------------|
B|----13--13--13--10--13/15\13-------|
G|-----------------------------------|
D|-----------------------------------|
A|-----------------------------------|
E|-----------------------------------|

e------------------------------------|
B------------------------------------|
G-12--10--9--910--12-----------------|
D---------------------10--12---------|
A------------------------------------|
E------------------------------------|

Back to Intro style, notes slightly changed
(3:02)
e-----------10------------------------------------------------10|
B--------10----11---10b11r10-3times-10b11r10\--13--11--10b11p8--|
G---------------------------------------------------------------|
D---12----------------------------------------------------------|
A---------------------------------------------------------------|
E---------------------------------------------------------------|

e--------------------------------------------------10vv--|
B--------------------10/-------10--11--13--11--10--------|
G---9--10--12\10--9--------------------------------------|
D--------------------------------------------------------|
A--------------------------------------------------------|
E--------------------------------------------------------|

Outro (3:17)
e---------------------------------------------------------------|
B-----10-10/11--10----------------------------------------------|
G-12----------12---(10)--10/12--(14)14\12--10--12---9--10-12--9-|
D---------------------------------------------------------------|
A---------------------------------------------------------------|
E---------------------------------------------------------------|
| |
|----------------- REPEAT THIS TO FADE --------------------|

Re: Flor D'Luna

: Flor D'Luna Tabbed By Nick Wellings, nickwellings@hotmail.com
: Intro: played in a bright stacatto way with feeling.
: Add some moody reverb/echo and select a clean warm tone with the pickup selector
: towards the neck pickup on a stratocaster, or pointing down on a Les Paul Style guitar.
: 0:00 Cd time
: (0:05)
: e----------10--------------------10------------------------------|
: B-------10-----13p11---10vv--------------13--11--10b11r10--------|
: G------------------------------------------------------------12\-|
: D-12-------------------------------------------------------------|
: A----------------------------------------------------------------|
: E----------------------------------------------------------------|

: 0:08 (0:12)
: e--------------------------------------------------10v-----------|
: B--------------------10\--------10--11--13--11p10----------------|
: G-9--10--12----10-9----------------------------------------------|
: D----------------------------------------------------------------|
: A----------------------------------------------------------------|
: E----------------------------------------------------------------|

: (0:16)
: e---------------------|
: B-----10-10/11--10----|
: G-12----------12------|
: D---------------------|
: A---------------------|
: E---------------------|
:
: (0:17) (0:22)
: e-------------------------------------------------------------|
: B-------------------------------------------------------------|0
: G--(10)--10/12--(14)14\12---10--12---9--10---12---9-----------|/
: D----------------------------------------------------10h12----|0
: A-------------------------------------------------------------|
: E-------------------------------------------------------------|

: (0:47)
: (1:02)
: e-----------------------10vv------15--13-12h13--15-12b13r12-|
: B--------10--11--13-----------------------------------------|
: G-----------------------------------------------------------|
: D-----------------------------------------------------------|
: A-----------------------------------------------------------|
: E-----------------------------------------------------------|

: (1:11)
: e---------------------------|
: b-13-13p10-13h15-13h15-13---| *******Missing******
: G---------------------------|Repeat
: D---------------------------|
: A---------------------------|
: E---------------------------|

: (1:16)
: e-----------------------------------------------|Piano Enters
: b-----------------------------------------------|Rhythm pattern
: G---12---10--9v-----9--10---12---10-------------|changes to more
: D-------------------------------------10h12-----|percussive beat
: A-----------------------------------------------|
: E-----------------------------------------------|
:
: Middle Solo (1:24)
: e-----------------------------|
: B-10------11--10------10------|
: G-----------------12----------|
: D-----------------------------|
: A-----------------------------|
: E-----------------------------|
: *sharp hard note throughout* (1:31)
: e------------------10*----------------------------------------|
: B-------10--11-10--------10-----------------------------------|
: G-----------------------------12v-----(12)--15p12h15--14------|
: D-------------------------------------------------------------|
: A-------------------------------------------------------------|
: E-------------------------------------------------------------|

: (1:34)
: e------------------------------------10*----------------------|
: B-11--10-----------------11---11p10-------9/10----------------|
: G---------12---------10---------------------------12----------|
: D-------------------------------------------------------------|
: A-------------------------------------------------------------|
: E-------------------------------------------------------------|

: (1:38)
: e-------------------------------|
: B----121212h14--10----10--------|
: G------------------12----12-----|
: D-------------------------------|
: A-------------------------------|
: E-------------------------------|

: (1:40)
: e--------------------------------|
: B--------------------------------|
: G--------------------------------|
: D--------------------------------|
: A---------(12)---10-----10--12---|
: E-------------------12-----------|

: (1:47)
: e---------------------10-----------12--------------12-----12bh13|
: B------------10----10----10-----10----10--10--10-------10-------|
: G------9h10-----------------------------------------------------|
: D----12---------------------------------------------------------|
: A--12-----------------------------------------------------------|
: E---------------------------------------------------------------|

: pluck bent 13 five more times and on the fifth time
: e---13p12p10--10--------------------------|
: B----------------13p10--------------------|
: G----------------------12p10-----10-9-----|
: D-------------------------------------12--|
: A-----------------------------------------|
: E-----------------------------------------|

: (1:53)
: e-------------------------------------------------------------|
: B-------------------------------------------------------------|
: G-10--1212-----10--1212-----10--1212-----10h12-----10--1212---|
: D-------------------------------------------------------------|
: A-------------------------------------------------------------|
: E-------------------------------------------------------------|

: (1:55)
: e---------------------------10------------|
: B---------------------------------13p10---|
: G--------------10h12b13r12----------------|
: D-----------------------------------------|
: A-----------------------------------------|
: E-----------------------------------------|

: (1:57) repeat 13h15b 7 times, slightly speeding up then:
: e---------------------------13h15b------------------15p13p10--|
: B-------------------------------------------------------------|
: G-12p10\9-----(12p10)-----------------------------------------|
: D-----------12------------------------------------------------|
: A-------------------------------------------------------------|
: E-------------------------------------------------------------|
: five times-slowish+ seven times fast
: e-10------------------13p12----13p12----13p12p10----13p12p10--|
: B-----13---10---------------10--------------------------------|
: G--------------12b13------------------------------------------|
: D-------------------------------------------------------------|
: A-------------------------------------------------------------|
: E-------------------------------------------------------------|

: (2:10)
: e--13---12---10---13p12h13--10---13p12--13/17-|
: B---------------------------------------------|
: G---------------------------------------------|
: D---------------------------------------------|
: A---------------------------------------------|
: E---------------------------------------------|

: e|-17h18---17---15---20---18--17-17---17\-----|
: B|--------------------------------------------|
: G|--------------------------------------------|
: D|--------------------------------------------|
: A|--------------------------------------------|
: E|--------------------------------------------|

: Slow 3 times Fast 5 times
: e-10/12-1212---15 10--13-10h12--10--13p12p10h13-----13p12p10h13|
: B-----------------------------13-------------------------------|
: G--------------------------------------------------------------|
: D--------------------------------------------------------------|
: A--------------------------------------------------------------|
: E--------------------------------------------------------------|

: Ascending Octave Run
: (2:25)(Not sure if this is Carlos)
: e|------------------------------------|
: B|------------------------------------|
: G|------------------------7-6---7h9-7-|
: D|---------5---7--5--8-7--------------|
: A|-5--8--7---8------------------------|
: E|------------------------------------|

: (2:31)
: e--------------10---13--12--(10)h12--------------10------------|
: B--10--11--13------------------------13p10---13------13--------|
: G--------------------------------------------------------------|
: D--------------------------------------------------------------|
: A--------------------------------------------------------------|
: E--------------------------------------------------------------|

: e----------------------10------------|
: B---12b13r12\-9--10--12-----10h11p10-|
: G------------------------------------|
: D------------------------------------|
: A------------------------------------|
: E------------------------------------|

: e-----------10------15---13--12--15 13h15--------------|
: B-10-11-13---------------------------------15bv17------|
: G------------------------------------------------------|
: D------------------------------------------------------|
: A------------------------------------------------------|
: E------------------------------------------------------|

: (2:55)
: e|-----------------------------------|
: B|----13--13--13--10--13/15\13-------|
: G|-----------------------------------|
: D|-----------------------------------|
: A|-----------------------------------|
: E|-----------------------------------|
:

: e------------------------------------|
: B------------------------------------|
: G-12--10--9--910--12-----------------|
: D---------------------10--12---------|
: A------------------------------------|
: E------------------------------------|
:
: Back to Intro style, notes slightly changed
: (3:02)
: e-----------10------------------------------------------------10|
: B--------10----11---10b11r10-3times-10b11r10\--13--11--10b11p8--|
: G---------------------------------------------------------------|
: D---12----------------------------------------------------------|
: A---------------------------------------------------------------|
: E---------------------------------------------------------------|

: e--------------------------------------------------10vv--|
: B--------------------10/-------10--11--13--11--10--------|
: G---9--10--12\10--9--------------------------------------|
: D--------------------------------------------------------|
: A--------------------------------------------------------|
: E--------------------------------------------------------|
:
: Outro (3:17)
: e---------------------------------------------------------------|
: B-----10-10/11--10----------------------------------------------|
: G-12----------12---(10)--10/12--(14)14\12--10--12---9--10-12--9-|
: D---------------------------------------------------------------|
: A---------------------------------------------------------------|
: E---------------------------------------------------------------|
: | |
: |----------------- REPEAT THIS TO FADE --------------------|
:

tank you, I looking for this song for a long time in all the web.

Santana tabs for "African Bamba"

Does anyone have the tabs for this song, or at least the acoustic intro bit, i really like it and want to play it?? Pllleeeaasseeee Help!!! Thanks

Tab for "Sorry" by Suicidal Tendencies

hello all,
can anyones please help me find the tab for Sorry by the suicidals. Its the best song and i can't find the tab
anywhere. Also if anyone knows any good Suicidal Tendencies tab pages let me know.
Most are bullshit with incomplete failed
attempts at the song.

Santana's Hold On

Anyone have the chords for Santana's Hold On? I thought I had a better ear than what I do, and I couldn't figure it out. Any help would be greatly appreciated.

star spangled banner

send me these tabs i need them its the key to my guitar.

Re: star spangled banner

: send me these tabs i need them its the key to my guitar.

Re: star spangled banner

: : send me these tabs i need them its the key to my guitar.

ive been wantin this tab 4 a long time

Re: star spangled banner

dude go to this web site
http://www.guitaretab.com/h/hendrix-jimi/22898.htm

national anthem

I have been seaching for hours for national anthem tabs. I would be really happy if i got ome tabs and were able to play them. your cool if you send me tabs

Re: national anthem

: I have been seaching for hours for national anthem tabs. I would be really happy if i got ome tabs and were able to play them. your cool if you send me tabs

can you please send me national anthem tab or tell me where I can get them.

Re: national anthem

Hey I have been lookin everywhere and i ran across a couple of them at guitar tab universe but the best one there is a duet version by boston. Here is teh website they also have teh Jimi hendrix version and a couple of teh folk gutiar versions. It is mapped via band though so you will have to go to misc. for teh folk style versions. good luck. www.guitartabs.cc

Re: national anthem

I've searched everywhere for them too and i get find them anywhere

Re: national anthem

: I have been seaching for hours for national anthem tabs. I would be really happy if i got ome tabs and were able to play them. your cool if you send me tabs

Re: national anthem

: : I have been seaching for hours for national anthem tabs. I would be really happy if i got ome tabs and were able to play them. your cool if you send me tabs

Hey, have you found the TABS for guitar 'bout "National Anthem"? I look also for it. Have you got it?

Re: national anthem

: : : I have been seaching for hours for national anthem tabs. I would be really happy if i got ome tabs and were able to play them. your cool if you send me tabs

: Does anyone have the National Anthem Tab and could you send them too me. Signed...EXHAUSTED
: Hey, have you found the TABS for guitar 'bout "National Anthem"? I look also for it. Have you got it?

Tolerance tabs.

Could anyone please help me with finding tabs for Arizona band Tolerance? Especially tabs from Die Mantra.

santana tab

hey if u have the tab love of my life from the santana supernatural album post it up in fresh tabs .com ill help u out with the tabs these people are requesting i got lots of em except love of my life

Re: santana tab

vayanse a la mierda

Post new comment

The content of this field is kept private and will not be shown publicly.
CAPTCHA
This question is for testing whether you are a human visitor and to prevent automated spam submissions. Do not include any spaces in your answer.
Image CAPTCHA
Copy the characters (respecting upper/lower case) from the image.

Contact | Advertise | Contents | Privacy Policy | Forum

This site is published by Hitsquad Pty Ltd. Copyright © 1999 - 2017 , All Rights Reserved.