Susan Tedeschi

Posted by Snow on Sun, 08/10/03 - 11:41:11.

Hi. Does anybody have the chords for Susan Tedeschi's version of the Dylan tune "Don't Think Twice"? I can't find it anywhere! Thanks.

Comment viewing options

Select your preferred way to display the comments and click "Save settings" to activate your changes.

Re: Susan Tedeschi

: Hi. Does anybody have the chords for Susan Tedeschi's version of the Dylan tune "Don't Think Twice"? I can't find it anywhere! Thanks.
_______________________________
Hi,
I found a version on cordie.com that I think she uses:

C, G, Am
F, C, G
C, G, Am
D7, G7

C,C7
F, D7
C, G, Am, F
C. G, C

It works good for me. goodluck

Re: Susan Tedeschi - more readable version of chords to "Blues o

“Blues on a Holiday” - Susan Tedeschi/ Paul Rishell

These are the basic chords. Note the descending bass notes approaching the end of the verse, while the high D remains
constant: a standard blues turnaround that's given an ingenious voicing twist by Paul Rishell. During the bridge (below),
there are one or two pull-offs and hammer-ons on the 2nd, 3rd and 4th strings of the Bm chord.

Verse and chorus:

Dmaj7 D7 G C9 Dmaj7 D7 G C9 Dmaj7 D7 G Gm/9 D Bm7 Bb7 G/A Ddim D
E |--2----x--x--0---2-----x--x--0--2-----5--3--5----x--x---x---x---x-----2--||
B |--2----1--0--3---2-----1--0--3--2-----3--3--3----3--3---3---3---3-----3--||
G |--2----2--0--3---2-----2--0--3--2-----5--4--3----2--2---1---0---1-----2--||
D |--0----0--0--2---0-----0--0--2--0-----0--0--0----0--4---4---0---3-----0--||
A |--x----0--2--3---x-----0--2--3--x-----x--x--x----x--2---1---0---2-----x--||
E |--x----2--3--x---x-----2--3--x--x-----x--x--x----x--x---x---x---x-----x--||

Bridge:

G F Em F# Bm A G F Em F# Bm F#7

E |---3----1----0----2-----2----x----3----1----0----2-----2-----2----||
B |---3----1----0----2-----3----2----3----1----0----2-----3-----2----||
G |---4----2----0----3-----4----2----4----2----0----3-----4-----3----||
D |---5----3----2----4-----4----2----5----3----2----4-----4-----4----||
A |---5----3----2----4-----2----0----5----3----2----4-----2-----4----||
E |---3----1----0----2-----x----x----3----1----0----2-----x-----2----||

re: - don't think twice- susan tedeshi??

: Hi. Does anybody have the chords for Susan Tedeschi's version of the Dylan tune "Don't Think Twice"? I can't find it anywhere! Thanks.

only know bob dylans version-
here's the chords in easy form

D7,G,Em,C, G
D7, G, D, Em, A D
G, G7
G, D, Em, C, G D, G, D

hope that helps-

Re: re: - don't think twice- susan tedeshi??

: : Hi. Does anybody have the chords for Susan Tedeschi's version of the Dylan tune "Don't Think Twice"? I can't find it anywhere! Thanks.

:
: only know bob dylans version-
: here's the chords in easy form

: D7,G,Em,C, G
: D7, G, D, Em, A D
: G, G7
: G, D, Em, C, G D, G, D

: hope that helps-

I found other versions on cordie.com. I think she uses the second version as follows:
C, G, Am
F, C, G
C, G, Am
D7, G7
C, C7
F, D7
C, G, Am, F
C, G, C

HOPE THIS HELPS

Re: re: - don't think twice- susan tedeshi??

: : Hi. Does anybody have the chords for Susan Tedeschi's version of the Dylan tune "Don't Think Twice"? I can't find it anywhere! Thanks.

: She plays it out of C.

Verse C G Am F
C C7 F D7

: only know bob dylans version-
: here's the chords in easy form

: D7,G,Em,C, G
: D7, G, D, Em, A D
: G, G7
: G, D, Em, C, G D, G, D

: hope that helps-

Re: Susan Tedeschi

: Hi. Does anybody have the chords for Susan Tedeschi's version of the Dylan tune "Don't Think Twice"? I can't find it anywhere! Thanks.

Have you found it yet?

Post new comment

The content of this field is kept private and will not be shown publicly.
CAPTCHA
This question is for testing whether you are a human visitor and to prevent automated spam submissions. Do not include any spaces in your answer.
Image CAPTCHA
Copy the characters (respecting upper/lower case) from the image.

Contact | Contents | Privacy Policy | Forum

This site is published by Hitsquad Pty Ltd. Copyright © 1999 - 2017 , All Rights Reserved.