lightnin'hopkins guitar tabs

Posted by dustin on Tue, 02/05/02 - 06:04:05.

need any lightnin'hopkins tabs

Comment viewing options

Select your preferred way to display the comments and click "Save settings" to activate your changes.

Re: lightnin'hopkins guitar tabs

: need any lightnin'hopkins tabs esp mojo hand

LIGHTNIN' HOPKINS TABS

CAN'T FIND SHORT HAIRED WOMEN TABBED ANYWHERE CAN YOU HELP?

Re: lightnin'hopkins guitar tabs

: Looking for lightnin'hopkins "Going Back Home" Tab

Re: lightnin'hopkins guitar tabs

: need any lightnin'hopkins tabs

I am looking for tabs for You better watch yourself

Re: lightnin'hopkins guitar tabs

I need any lightnin'hopkins tabs

Re: lightnin'hopkins guitar tabs--Here's a few

http://www.powertabs.net/pta.php?page=user,86

Please share if anyone finds more.
E

Re: here it is

---------------------------------------------------------------
---3------5-4x---------2--------------4slide2-0-----------------------------
---2slide4----4slide2-0------------------------2----------------------------
---------------------------------------------------------------
--INTRO-LICK------------------------------------------------------------
------------------------------3-0---------------------------
e flat
-----strum--up-and-down------stum-E-4x------4--play4x----4-------------------------------
------------------------------------------------------------
-down-with-thumb-----------------------------------------------------------
-up-with-index---------------------------------------------re------------
-------------------------------------------------------------
-------------------------------------------0-----------------
A7
--PICKED---slow-temp-slightly-----------------------------------------------------
-----------------------------then-play------------------------------
---------------------------------------2-0--------------------
-------------------------------------------------------------
-------------------------------------------0-back-to-E--------------
-------------------------------------------leave-out-7th---------------
play E4x then B flat back to A7
------------------------------------------------------------
------------------------------------------------------------
--------------------------------------2-0----------------------
------------------------------------------2------------------
----------------------------------------------then-play-intro------------
----------------------------------------------as-outro-------------

i hope this helps someone. this is not a actual lightnin song, but its the exact style that he plays. 95% of his song
are evaled around this licked and shuffle. i know b/c i can
play about anything that i have ever heard by him. so use this, and you can figure them out fairly easy. but above all
else use it, be creative, and most importantly have fun with
it

Re: lightnin'hopkins guitar tabs

: Let me know where I can get Lightnin' tabs. I love the man's music. :)

Re: lightnin'hopkins guitar tabs

i need as many as i can get, i do gigs around nottingham at blues nights, any tabs would be fantastic, keep lightnin' alive !!!

especially 'big car blue'...
thanks

Re: lightnin'hopkins guitar tabs

does anybody have tabs on T Model Blues? Would be most grateful.

Re: lightnin'hopkins guitar tabs

Dude I need as many as you can give. msg if you can.

thx

Re: lightnin'hopkins guitar tabs

:I love Lightnin's music.
Please send any Lightnin' Hopkins tabs you can.
thanks
Richard Drogin

Re: lightnin'hopkins guitar tabs

: :I love Lightnin's music.
: Please send any Lightnin' Hopkins tabs you can.
: thanks
: m. madjoubi

Re: lightnin'hopkins guitar tabs

: Dude I need as many as you can give. msg if you can.please

: thx

Re: lightnin'hopkins guitar tabs

: : Dude I need as many as you can give. msg if you can.please

: : thx

HI,

Please send me some Lightnin' Hopkins tab and, or website refererences. I bought a couple of notation books on line, but I'm looking for more....

Thanks!
Randy
ry2dsrt@hotmail.com

Post new comment

The content of this field is kept private and will not be shown publicly.
CAPTCHA
This question is for testing whether you are a human visitor and to prevent automated spam submissions. Do not include any spaces in your answer.
Image CAPTCHA
Copy the characters (respecting upper/lower case) from the image.

Contact | Contents | Privacy Policy | Forum

This site is published by Hitsquad Pty Ltd. Copyright © 1999 - 2017 , All Rights Reserved.