Page of Tabs and Pure Madness!!

Page of Tabs and Pure Madness!!

Tabs for Jimi Hendrix, Led Zeppelin, Red Hot Chili Peppers and more!

Here you can find tabs for Hendrix, Zeppelin, RHCP and more! Also I have a page of Jim Morrison's writings, be sure to check it out! I have 4 guitars and you can see pics of them and even listen to me play.

Comment viewing options

Select your preferred way to display the comments and click "Save settings" to activate your changes.

HI

hey, could you send me tabs or notes for road trippin' and under the bridge??

abu abus

jkljkljjl

abu abus

jkljkljjl

I need bass tabs for

I am looking for bass tabs for "Under the Sun", and "Higher Ground"! Please e-mail them to me! strong_dustin@hotmail.com

red hot chilli peppers califonication lead tabs or notes

red hot chilli peppers califonication lead tabs or notes

This popular thread has been given its own page : red hot chilli peppers califonication lead tabs or notes

i need help!!!!!!!!!!!!!!11

i need luis fonsi guitar tabs, anyone can help me????

guitar tabs

I'm goin out of my mind trying to find some guitar tabs for oscar lopez's "classical soul" so if anyone can help i will be forever greatfull.

effects settings

I know john uses a boss compressor i want to know the actual settings of his songs. Like By the way, Under the bridge, Zephr song, Can't stop, I could of lied, I could die for you etc
Any help?
JK

van halen

necesito las tabs de so this is love? de van halen y la de tobacco road de dlr...me estoy volviendo loco para encontrarlas y mucho mas para sacar los solos de oido!!!!por favor!!!!!

shandon tabs needed

i need urgently shandon tabs , but only of their last album: Not so happy to be sad. I've already got the other.

thanks!

Re: shandon tabs needed

Instead i need the tab of BLu (shandon-fetish)
IO invece ho bisogno il tab di Blu (shandon-fetish)

Paul Weller scores or tabs

I'm looking for scores or tabs of Paul Weller's song:
'You do something to me' Who can help? I prefere score
Thanks

red hot chilli peppers scartissue tab

i wondered if u could send me scartissue guitar tab

Re: red hot chilli peppers scartissue tab

Red Hot Chili Peppers Sheet Music·Red Hot Chili Peppers Lyrics·Red Hot Chili Peppers Posters

June 10, 2004
FIND!
Archive · A B C D E F G H I J K L M N O P Q R S T U V W X Y Z #
Home › R › Red Hot Chili Peppers › Scar Tissue
SCAR TISSUE TAB
EDIT TAB / RATE TAB — TOP TABS Printable Version

t. See http://www.olga.net/faq/ for more information. #
#-----------------------------------------------------------------------------#

Scar Tissue
Red Hot Chili Peppers
Californication

Written by: RHCP

Transcribed by: Alex Holmes
team_karakal@hotmail.com

Right. I've seen several different tabs for this song, but they all miss
essential bits and pieces. The notes I've given are right, you may want to
play them somewhere else, but on my acoustic, these sounded closest to John.

So here it is, in full effect, as on the CD. Enjoy.

Intro
e||-----------------------------------------------------------|
B||---10---10---10---10--5-5/6--6---6---6---6\5---------------|
G||-----------------------------------------------------------|
D||-----------------------------------------------------------|
A||-8----8----8----8-----3-3/5----5---5---5---\3--3-----------|
E||-----------------------------------------------------------|

e|------------------------------------------------------------|
B|---10---10---10---10-8--5/6----8p6-8p6----------------------|
G|------------------------------------------------------------|
D|------------------------------------------------------------|
A|-8----8----8----8-------3/5---------------------------------|
E|------------------------------------------------------------|

Verse 1 (0:11)
e|------------------------------------------------------------|
B|---10---10---10---10\-5-5/6--6---6---6---6\5----------------|
G|------------------------------------------------------------|
D|------------------------------------------------------------|
A|-8----8----8----8---\-3-3/5----5---5---5--\3--3-------------|
E|------------------------------------------------------------|
Scar tissue...

e|---------------------8--------------------------------------|
B|---10---10---10---10------10---10---10-8-6-5----------------|
G|------------------------------------------------------------|
D|------------------------------------------------------------|
A|-8----8----8----8-------------------------------------------|
E|------------------------8-10--------------------------------|

Chorus x2
F C Dm C
With the ....

Verse 2 (0:32)
e|------------------------------------------------------------|
B|---10---10---10---10--5-5/6--6---6---6---6\5----------------|
G|------------------------------------------------------------|
D|------------------------------------------------------------|
A|-8----8----8----8-----3-3/5----5---5---5---\3--3------------|
E|------------------------------------------------------------|

e|---------------------10-8------------13-12-10-8-------------|
B|---10---10---10---10------8/10-10-10------------------------|
G|------------------------------------------------------------|
D|------------------------------------------------------------|
A|-8----8----8----8-------------------------------------------|
E|----------------------------(10)(10)------------------------|

Chorus x3

Solo 1
(0:59)
e|------------------------------------------------------------|
B|---13\10---10\8---8/10-10---10/12/13------------------------|
G|------------------------------------------------------------|
D|------------------------------------------------------------|
A|------------------------------------------------------------|
E|------------------------------------------------------------|

Verse 3 (1:10)
e|------------------------------------------------------------|
B|---10---10---10---10--5-5/6--6---6---6h8-6h8----------------|
G|------------------------------------------------------------|
D|------------------------------------------------------------|
A|-8----8----8----8-----3-3/5----5---5------------------------|
E|----------------------------------------------8-------------|
Blood loss...

e|------------------8-----------------------------------------|
B|---10---10---10-----8-8/10-10-10-12-13-12-10----------------|
G|------------------------------------------------------------|
D|------------------------------------------------------------|
A|-8----8----8----8-------------------------------------------|
E|-----------------------(10)(10)-----------------------------|

Chorus x2

Verse 4 (1:31)
e|------------------------------------------------------------|
B|---10---10---10---10--5-5/6--6---6---6---6\5----------------|
G|------------------------------------------------------------|
D|------------------------------------------------------------|
A|-8----8----8----8-----3-3/5----5---5---5---\3--3------------|
E|------------------------------------------------------------|
Soft-spoken...

e|----------------------8------------12-10--------------------|
B|---10---10---10---10----8/10-10-10-------13-10--------------|
G|------------------------------------------------------------|
D|------------------------------------------------------------|
A|-8----8----8----8-------------------------------------------|
E|--------------------------(10)(10)--------------------------|

Chorus x3

Solo 2 (1:59)
e|------------------------------------------------------------|
B|--13/15---15\13\10--------10-10\8--------13\10--------------|
G|------------------------------------------------------------|
D|------------------------------------------------------------|
A|------------------------------------------------------------|
E|------------------------------------------------------------|

e|------------------------------------------------10/12/13----|
B|--13/15---17\13\10--------10/13\8------13\10----------------|
G|------------------------------------------------------------|
D|------------------------------------------------------------|
A|------------------------------------------------------------|
E|------------------------------------------------------------|

Verse 5 (2:21)
e|------------------------------------------------------------|
B|---10---10---10---10--5-5/6--10---10---10---10--------------|
G|------------------------------------------------------------|
D|------------------------------------------------------------|
A|-8----8----8----8-----3-3/5---------------------------------|
E|-----------------------------10---10---10--\8---------------|
Scar tissue...

e|---------------------8--------------------------------------|
B|---10---10---10---10--------10---10---10-8-6-5--------------|
G|------------------------------------------------------------|
D|------------------------------------------------------------|
A|-8----8----8----8-------------------------------------------|
E|------------------------8-8/10------------------------------|

Chorus x3

Outro (2:47)
e|--/17--17\15---/17\12---12/13\10---\8/10|\8/10--10\8\5------|
B|----------------------------------------|-------------------|
G|----------------------------------------|-------------------|
D|----------------------------------------|-------------------|
A|----------------------------------------|-------------------|
E|----------------------------------------|-------------------|

e|--5/8\--------------------|---------------------------------|
B|------8---8/12\10---------|/10----10--10-10-----------------|
G|--------------------7/9\7-|------------------7/9\7--7/9\5---|
D|--------------------------|---------------------------------|
A|--------------------------|---------------------------------|
E|--------------------------|---------------------------------|

e|---------|--------13\12-12---------------------------------||
B|---------|-/10-------------13/15\10--/13\8-(8)/10......----||
G|--5/7\---|-------------------------------------------------||
D|------7--|-------------------------------------------------||
A|---------|-------------------------------------------------||
E|---------|-------------------------------------------------||

Verse 1:

Chorus:

Verse 2:

Chorus: x1.5

Verse 3:
Chorus

Verse 4:
Chorus

Verse 5:

Chorus: x1.5

---
For the solos, a metal slide is preferred.

Re: red hot chilli peppers scartissue tab

: i wondered if u could send me scartissue guitar tab

Re: red hot chilli peppers scartissue tab

it would be sOoo great if you could :D
thank you thank you
much appriciated :D

Re: red hot chilli peppers scartissue tab

: i wondered if u could send me scartissue guitar tab

Re: red hot chilli peppers scartissue tab

: : i wondered if u could send me scartissue guitar tab

Re: red hot chilli peppers scartissue tab

: : : i wondered if u could send me scartissue guitar tab

Re: red hot chilli peppers scartissue tab

I wondered if u could send me scartissue guitar tab, need some thing new to practice. Thank you

i need j.f tabs

if anyone has tabs to jermiah freed, email me, thanks

fuck you

fuck you

ik zoek de homepage van de red hot chilli peppers

wie kan me helpen die page te vinden ik ben wanhopig ZEG HET ME!!
of is er geen home page van de red ht chilli peppers en is dit een nutteloze zoekactie

red hot chlli peppers

i need bass tabs for by the way

Re: red hot chlli peppers

: i need guitar tabs for californication

Re: red hot chlli peppers

: i need bass tabs for road trippin

Re: red hot chlli peppers

: i need bass tabs for by the way

Re: red hot chlli peppers

: : i need bass and lead tabs for by the way

Unida

I need unida lyrics and tabs!!! Help me!

Re: Unida

: I need unida lyrics and tabs!!! Help me!

mxtabs.net has some of them

tabs

hey ya, i need tabs for nick barker & the reptiles . please help .

dfasdfasd

asdfasdfasdfadsfsad

City of angels guitar tab

man, iv been searching EVERYWHERE!! I need the tan for city of angels by red hot chilli peppers nowor ill go crazie!!

City of angels guitar tab (Acoustic)

I really need the tab for this song! i've been searching everywhere

Re: City of angels guitar tab

i'm guessing what you mean is you want tabs for under the bridge... "it's the city i live in/the city of angels..." you can find that anywhere

Re: City of angels guitar tab

i need under the bridge tabs please, new to aol and dont know how to get them, please help...thanks

Re: City of angels guitar tab

I just tabbed city of angels and posted it at www.guitarstart.com go to tabs and scroll down

Re: City of angels guitar tab

I need the Tabs to "Under The Bridge" too - having a stupid day and can't find the - can any one help please!!!!

If you have any others they would be greatly appreciated!

Cheers

n

I need tab for road trippin of red hot chili peppers for acoustic guitar

tab

I need tab for I could have lied -red hot chile peppers

need bass tab for Massive Attack's Dissolved Girl!!

why does nobody have this.... its not fair

Re: need bass tab for Massive Attack's Dissolved Girl!!

Apparently it sounds like
----------------
----------------
-----1----------
1-11x---44411---

----0-----------
-------2--------
-----1----------
1-11----44411---

I am not really sure because I just tryed to sort it out a few minutes ago but since you ask maybe it could help you as a basis
Marco

Re: need bass tab for Massive Attack's Dissolved Girl!!

: Tune down a half step to an Eb tuning
: --------------------------------------
: -------------------------2------------
: ----2--0-0-0---------------2-0-0-0----
: 2-2-----------2-2--0-2-2------------22

Re: need bass tab for Massive Attack's Dissolved Girl!!

: : Tune down a half step to an Eb tuning
: : ----------------------------------------
: : -------------------------2---0----------
: : ----2--0-0-0---------------2---0-0-0----
: : 2-2-----------2-2--0-2-2--------------22

paul weller?????????

Does any one know where I can get the tab for the for any of the songs of Days of speed album

Re: paul weller?????????

: Does any one know where I can get the tab for the for any of the songs of Days of speed album
I have tried to play my favorite song of "days of speed": English Rose. I hope you like it too.
Frank Rybicki ( Its the first time for me to take something in the internet.I will send you.
I don't know how this function,.

Re: paul weller?????????

: : Does any one know where I can get the tab for the for any of the songs of Days of speed album
: I have tried to play my favorite song of "days of speed": English Rose. I hope you like it too.
: Frank Rybicki ( Its the first time for me to take something in the internet.I will send you.
: I don't know how this function,.

frank email me i have it acousticallly
m

Re: paul weller?????????

: : : Does any one know where I can get the tab for the for any of the songs of Days of speed album
: : I have tried to play my favorite song of "days of speed": English Rose. I hope you like it too.
: : Frank Rybicki ( Its the first time for me to take something in the internet.I will send you.
: : I don't know how this function,.

: frank email me i have it acousticallly
: m

Try Looking in Guitar TAB Universe Under The Jam and Paul Weller Lots of good stuff from Days of Speed.

Luis Fonsi guitar tabs

Get me some tabs of Luis Fonsi!!!!

Re: Luis Fonsi guitar tabs

: Get me some tabs of Luis Fonsi!!!!

Post new comment

The content of this field is kept private and will not be shown publicly.
CAPTCHA
This question is for testing whether you are a human visitor and to prevent automated spam submissions. Do not include any spaces in your answer.
Image CAPTCHA
Copy the characters (respecting upper/lower case) from the image.

Contact | Advertise | Contents | Privacy Policy | Forum

This site is published by Hitsquad Pty Ltd. Copyright © 1999 - 2017 , All Rights Reserved.