Bass Tabs, Guitar Tabs and Lyrics

Bass Tabs, Guitar Tabs and Lyrics

Tabs for any guitarist, bassist or lyrics.

A tabs and lyrics site for any musician and submissions are welcome
so keep 'em comin in

Comment viewing options

Select your preferred way to display the comments and click "Save settings" to activate your changes.

Maynard James Keenan

I need a Maynard autograph ASAP!

Deep Purple

If anyone has the correct bass tabs for deep purple smoke on the water, please send them to me.

Re: Deep Purple

: If anyone has the correct bass tabs for deep purple smoke on the water, please send them to me.

Re: Deep Purple

: : If anyone has the correct tabs for deep purple please send them to me.

Deep Purple

If anyone has the correct bass tabs for deep purple smoke on the water, please send them to me.

Does anybody have lyrics from all songs of Eros Ramazotti

??

guitar tab+lyrics 4 3doorsdown/kryptonite + offspring/selfesteem

pls dude if u got tabs 4 these songs can u pls send them asap. needed for gig

STAINDS

Could you please send me some tabs or chords of the song outside and it's been awhile

Re: STAINDS

: Could you please send me some tabs or chords of any staind song!!!please!!!

Re: STAINDS

: Could you please send me some tabs or chords of any staind song!!!please!!!

Re: STAINDS

: Could you please send me some tabs or chords of the song fade, me and can´t believe (unplugged)

Re: STAINDS

can you plz give me the chords to stainds outside its ma fav

Re: STAINDS

: Could you please send me some tabs or chords of the song outside and it's been awhile

Re: STAINDS

If anybodys got any Staind guitar sheetmusic/tabliture could you get it to me, my band cant get ahold of any at all

Re: STAINDS

: : Could you please send me some tabs or chords of the song outside, it's been awhile and epiphany

I want Saigon kick chords

I need chords from saigon kick's album, devil in the detail

ramones tab & lyrics to a long forgotten song

who wants this task? The ramones did a song in a movie called "get crazy".. its called Chop Suey (NO, not system of a down)... if anyone can find the tabs & lyrics to that... kick ass.. many thanks... ive searched all over for it and cant find it... a little help wouldbe nice... ty
Zann

NEED ORGY GUITAR TAB (FEAT: JON DAVIS) (SPAWN)

i need orgy guitar and bass tabs for the orgy song ont the spawn soundtrack feat: jonathan davis

Dimmu Borgir

Hi... I need some dimmu borgir tabz and ozzy tabz

Re: Dimmu Borgir

: Hi... I need some dimmu borgir tabz´: under korpens vinger, hunner kungens sorgsvarte färd över steepen.

Album For all tid

metaltabs.com

go to metaltabs.com, you can find some DG tabs there

dimmu bass tabs

i need Metal Heart bass tabs...anyone knows where???

I Need ARoUnd THE wOrLd BasS TABS OF THE PEPPERS

SEnd ME tHE BaSS kOrDS PlEaSE

here is the intro for around the world

intro
-----------------------------
------------------------------
------------------------------
--0-(0)--0-0-0----------------

-------------------------------------------------
-12h14-14--12h14-14--12h14-14--------------------
-----------------------------------14--13--12--10---
-------------------------------------------------
just repeat as many times as in the song and i dont have the rest

here is the intro for around the world

intro
-----------------------------
------------------------------
------------------------------
--0-(0)--0-0-0----------------

-------------------------------------------------
-12h14-14--12h14-14--12h14-14--------------------
--------------------------------14--13--12--10---
-------------------------------------------------
just repeat as many times as in the song and i dont have the rest

Re: I Need ARoUnd THE wOrLd BasS TABS OF THE PEPPERS

: SEnd ME tHE BaSS tabs PlEaSE

I Need ARoUnd THE wOrLd BasS TABS OF THE PEPPERS

SEnd ME tHE BaSS kOrDS PlEaSE

I Need ARoUnd THE wOrLd BasS TABS OF THE PEPPERS

SEnd ME tHE BaSS kOrDS PlEaSE

ozzy and deep purple bass tabs

if anyone has the correct bass tabs for ozzy and primus N.I.B. or bass tabs for deep purple smoke on the water, send them to me! thanx

Mistreated

PLease Help ME, I Have to play in a concert "Mistreated" of Deep Purple and I don't How to do IT,
If someone coul help me giving me the Bass Tabs, I'll be very Thank You.

Thanks and Bye

Re: Mistreated

: PLease Help ME, I Have to play in a concert "Mistreated" of Deep Purple and I don't How to do IT,
: If someone coul help me giving me the Bass Tabs, I'll be very Thank You.

: Thanks and Bye

Re: Mistreated

: : PLease Help ME, I Have to play in a concert "Mistreated" of Deep Purple and I don't How to do IT,
: : If someone coul help me giving me the Bass Tabs, I'll be very Thank You.

: : Thanks and Bye

Starting...
G|---------|
D|--->-----|
A|-2-4-----|
E|---------|

Riff 1
G|--------------------------------------------|
D|--------------------------------------------|
A|-------------------------------------4-2----|
E|-0h2--(2)2---0h2--(2)2---0h2--(2)2----------|
(...basic scale, feel free to improvise)

Riff 2
G|-------------------------------------------------------|
D|-------------------------------------------------------|
A|-0-(0)-00-(0)-0-0--2-(2)-22------------5-5-55----------|
E|------------------------------2-2-22-----------2-2-22--|

cool fill to add!
------/---------
G|----------------|------------------------------|
D|----------------|------------------------------|
A|----------2-----|--0-(0)-00-(0)-0-0--2-(2)-22--|
E|--0-2-4-0---4-2-|------------------------------|

Fill 1
G|--------------|------------------|
D|--------------|------------------|
A|-------0--2---|-------0---2---4--|
E|-2--4---------|-2--4-------------|

During 1st guitar solo play
G|----------------------------------|
D|----------------------------------|
A|----------------------------------|
E|--0h2--(2)2---0h2--(2)2......-----|
(...improvise freely!)

...during the last few bars of the 1st guitar solo
G|-------------------------------------------------------------|
D|-----------------------------------------------.-------------|
A|----------5-5-555------------5-5-555---4---2---4-------------|
E|-2-2-222-----------2-2-222-----------------------------------|

During 2nd guitar solo play
G|---------|
D|---------|
A|-----0-2-|
E|-2-4-----| (progressively increased speed and hits!)

song ends...
G|-------------|
D|---->--------|
A|----4--->----|
E|--------2----|

Well that's it. It's some kind of a tricky song (especially with the
improviations, but if you hear it carefully there sould be no problem).

I've tabbed the basic riffs. Put them together by hearing the song.

=============================================================================
== TABLATURE EXPLANATION ==
=============================================================================
---------- ----------
----5h8--- Hammeron ----(8)--- Ghost Note
---------- ----------
----5p8--- Pulloff ---8-[8]-- Tie
---------- ----------
----5/8--- Slide Up -----x---- Dead Note
---------- ----------
----58--- Slide Down ----------
---------- ||------|| Repeat Start & End
----5~~~-- Vibrato ||*----*||
---------- ||*----*||
---------- ||------||

chanhes *-* OZZY *-* TABS for keyboard or guitar

please give me what ya got on CHANGES , on piano , keyboard, bass or whatever,,,,,..... i need the god damned notes now !

very... ::DISTURBED::

::NEED DISTURBED!:: Do you know a site where i can get free, + c_o_r_r_e_c_t_ tabs for down w/ the sickness?

Re: very... ::DISTURBED::

: ::NEED DISTURBED!:: Do you know a site where i can get free, + c_o_r_r_e_c_t_ tabs for down w/ the sickness?

Re: very... ::DISTURBED::

: : ::NEED DISTURBED!:: Do you know a site where i can get free, + c_o_r_r_e_c_t_ bass tabs for disturbeds album the sickness?

Re: very... ::DISTURBED::

i have 100% correct tabs for down with the sickness. email me for them. do u have correct stupify tabs?

Re: very... ::DISTURBED::

: ::NEED DISTURBED!:: Do you know a site where i can get free, + c_o_r_r_e_c_t_ tabs for down w/ the sickness?

Re: very... ::DISTURBED::

Try http://www.taborama.com this is where I get all mine at.

I need some nirvna tabs

Dude I need some nirvana tabs would u please send me some????????????

I need some nirvna tabs guitar, bass n drum

: Dude I need some nirvana tabs would u please send me some????????????

jejeje.

TABS PLEASE!

I need tabs for American Steel "Maria" , Alkiline Trio "Radio", and Joan Jett "Bad Reputation". THANKS!

Re: TABS PLEASE!

could you please get me tabs for Alkaline Trio's Blue In The Face? thank you!

Re: TABS PLEASE! (american steel)

If anyone has found the TAB for "maria" by american steel please e-mail me @ w_brad@hotmail.com
re: I need tabs for American Steel "Maria" , Alkiline Trio "Radio", and Joan Jett "Bad Reputation". THANKS!

Re: TABS PLEASE!

i have a tab for radio. email me

Winter wonderland tab!!

I need tabs for "winter wonderland"Please!Thank you!

i need tabs for America high 5

I WANT TABS FOR AMERICA HIGH FIVE!!!! I NEED THEM BAD!!!

BLONDIE BASS TABS

I REALLY REALLY REALLY NEED BLONDIE 'ONE WAY OR ANOTHER' BASS TABS.. VERY URGENT PLEASE HELP!!!!!

Re: BLONDIE BASS TABS

: I REALLY REALLY REALLY NEED BLONDIE 'ONE WAY OR ANOTHER' BASS TABS.. VERY URGENT PLEASE HELP!!!!!

Re: BLONDIE BASS TABS 1 way or another

-----------------------------------------------------
-----------------------------------------------------
-5---5----5----5--5--4--3--2---2----2---2--2--3--4---
---5----5----5---------------2----2---2--------------

----------------------------------------------------
----------------------------------------------------
-5-----5------5----5--5--4--3--2----2-----2---------
----5------5-----5----------------2----2------------

this is all i have so far i havnt figured the change out so help out

Post new comment

The content of this field is kept private and will not be shown publicly.
CAPTCHA
This question is for testing whether you are a human visitor and to prevent automated spam submissions. Do not include any spaces in your answer.
Image CAPTCHA
Copy the characters (respecting upper/lower case) from the image.

Contact | Advertise | Contents | Privacy Policy | Forum

This site is published by Hitsquad Pty Ltd. Copyright © 1999 - 2017 , All Rights Reserved.