My Guitar Tabs Archive

All Kind of Guitar Tabs, Lit, Eve6, ect..

Eve6, Lit, Silverchair, blink 182, Jewel, Offspring, Tal Bachman,
Marvelous 3......and tons more.All Tabs

Comment viewing options

Select your preferred way to display the comments and click "Save settings" to activate your changes.

guitar

jerry

best tabs for tattoed on my mind

pls send me tabs for tattooed on my mind

Restore me

i need tabs for Restore me and Come Home by Anthony Evans!!!!!! please!

Ghost Of A Rose Tabs

Trying to find the tabs... Has anyone?

Re: Ghost Of A Rose Tabs

: Trying to find the tabs... Has anyone?

I really need of this tabs,especially of intro!please help me!

tablature of tattoed on my mind

Please send me a copy of tattooed on my mind tablature... Thank You!!

Re: tablature of tattoed on my mind

: Please send me a copy of tattooed on my mind tablature... Thank You!!
and also the chords

bonnie raitt tabs

looking for tabs for "louise"by paul sieble artist bonnie raitt on the collectin album

Help! Need Guitar Chords to the Following Songs:

Need guitar chords to the following songs:

"THERE IS NO WAY I CAN LIVE W/O YOU" RICKY DILLARD
"LET US ALL GO BACK" RICKY DILLARD
"GOD GREAT GOD" KURT CARR
"I AM HEALED" DONALD LAWRENCE
"LET'S CELEBRATE" TIMOTHY WRIGHT
"OH SWEET WONDER" RICKY DILLARD
"THE LORD IS BLESSING ME RIGHT NOW" LARRY TROTTER
"FOR THE REST OF MY LIFE" TIMOTHY WRIGHT
"I'LL GO" ISRAEL HOUGHTON
"I'VE GOT A REASON TO PRAISE THE LORD" RICKY DILLARD
"DO YOU KNOW HIM" HEZEKIAH WALKER
"BATTLEFIELD" NORMAN HUTCHINS

Re: Help! Need Guitar Chords to the Following Songs:

This popular thread has been given its own page : Re: Help! Need Guitar Chords to the Following Songs:

need tab for my brother jake

help tab for free, my brother jake required

Re: need tab for my brother jake

Hi if you get the chords to My brother Jake - Free - please email to me

Best

Chris

need tab fot my brother jake

help tab for free my brother jake required

'LIGHT MY FIRE' jim morrison / massive attack.

yes, well. i would like the tabs to 'light my fire'. i dont care if it's the jim morrison version or the massive attack version.

thanks a lot.

lit_tabs

need lit tabs

need L7 fuel my fire

i reeally love this track and i need these tabs desparatelyv pleeez

How can I contact Lit?

Here's my situation. Anyone know of the site www.flashflashrevolution.com ? Well it's similer to Dance Dance Revolution, and in order to keep it running, it needs new songs. I've done some work creating arrow beats for "Over my Head" but I need the rights to use it with the song on this site from Lit themselves or whoever would have permission to get it. If anyone can help me out!

Blackmores Night Tabs!!!

I cant anywhere find a decent tad for Blackmores night. No1 has any. For songs such as be mine tonight, Possum's Last dance, and spirit of the sea. Someone helo me find somewhere. or send me tabs.
-M@

Re: Blackmores Night Tabs!!!

visit tabsheaven.net for good guitarpro-files.
but i cant find 'possums last dance' there, either ; (

Re: Blackmores Night Tabs!!!

:
: I cant anywhere find a decent tad for Blackmores night. No1 has any. For songs such as be mine tonight, Possum's Last dance, and spirit of the sea. Someone helo me find somewhere. or send me tabs.
: -M@

Re: Blackmores Night Tabs!!!

: :
: : I cant anywhere find a decent tad for Blackmores night. No1 has any. For songs such as be mine tonight, Possum's Last dance, and spirit of the sea. Someone helo me find somewhere. or send me tabs.
: : -M@

Re: Blackmores Night Tabs!!!

There you can find some...
http://www.cifras.com.br/

Hey

Hey if anyone have the tabs for um "the storm","all for one","village on the sand" o ya and "Fool's Gold" please mail them to me

Re: Blackmores Night Tabs!!!

: : :
: : : I cant anywhere find a decent tad for Blackmores night. No1 has any. For songs such as be mine tonight, Possum's Last dance, and spirit of the sea. Someone helo me find somewhere. or send me tabs.
: : : -M@

Re: Blackmores Night Tabs!!!

: : : : heey if you want to find tabs from blackmore's night look at www.ritchieblackmore.de
: : : : I cant anywhere find a decent tad for Blackmores night. No1 has any. For songs such as be mine tonight, Possum's Last dance, and spirit of the sea. Someone helo me find somewhere. or send me tabs.
: : : : -M@

Come Get Some !!!

Here U Go !!!
=============

Possum goes to Prague

Blackmore's Night
Guitar
alhazrid@hotmail.com
fsl0@hotmail.com
dark_kiss_f@hotmail.com

E||------0---0h7h0-5-3h5h3h2h0---0h3h0-----|
B||----0---0-------------------0-----------|
G||------------------------------------4h5/|
D||--2-------------------------------------|
A||----------------------------------------|
E||----------------------------------------|

----------0------------------------||
----0-0-0---0----------------------||
--2-----------2-0h2h0-------------*||
----------------------4-1-4-2-----*||
-----------------------------------||
-----------------------------------||

---------8-12-15-14-12-11-14-11------------|
-------8------------------------12-4-------|
-----9-------------------------------4-----|
--10-----------------------------------4---|
-----------------------------------------2-|
-------------------------------------------|

----------------------------------|
----------------0---1-0h1h0-------|
--------------0-------------2-----|
----------2-4---------------------|
--------2---------0---------------|
--0-2-3---------------------------|

----------------5-3h5h3h2h0-----0---0-|
----0-4-0-----0-------------0h3---5---|
------------5-------------------------|
----------4---------------------------|
--2-----------------------------------|
--------------------------------------|

------------------------------------|
--1-0h1h0---0---0-------------------|
----------2---4---2-0h2h------------|
------------------------4-1-4-2-----|
------------------------------------|
------------------------------------|

------------------------------0---|
--------0-----1-0---------0-----0-|
------0-------------0---0---0-----|
--1-4-----1-4-----2---4-----------|
----------------------------------|
----------------------------------|

----0---------------------2-3h2h3---|
--------3---1---0-------3---------3-|
----------------------2-------------|
--------------------0---------------|
--0---0---0---0---------------------|
------------------2-----------------|

----------------------------------|
--------0-----1-0---------------0-|
------0-----------------------0---|
--1-4-----1-4-------------2-4-----|
------------------------2---------|
------------------0-2-3-----------|

-------------------------------3h2-----|-----------2h0---------------|
------------0--------------3-------3---|---------4-----4-------------|
--0-------0---0h2h0------2---2-------0-|-------0---------4-----------|
----2---2-----------2--0---------------|-----4-------------2---------|
------3--------------------------------|---2-------------------------|
---------------------------------------|-----------------------------|

------0---0h7h0-5-3h5h3h2h0---0h3h0-----|
----0---0-------------------0-----------|
------------------------------------4h5/|
--2-------------------------------------|
----------------------------------------|
----------------------------------------|

----------0-----------------------|
----0-0-0---0---------------------|
--2-----------2-0h2h0-------------|
----------------------4-1-4-2-----|
----------------------------------|
----------------------------------|

------0---0h7h0-5-3h5h3h2h0---0h3h0-----|
----0---0-------------------0-----------|
------------------------------------4h5/|
--2-------------------------------------|
----------------------------------------|
----------------------------------------|

----------0-----------------------|
----0-0-0---0---------------------|
--2-----------2-0h2h0-------------|
----------------------4-1-4-2-----|
----------------------------------|
----------------------------------|

---------8-12-15-14-12-11-14-11------------|
-------8------------------------12-4-------|
-----9-------------------------------4-----|
--10-----------------------------------4---|
-----------------------------------------2-|
-------------------------------------------|

----------------------------------|
----------------0---1-0h1h0-------|
--------------0-------------2-----|
----------2-4---------------------|
--------2---------0---------------|
--0-2-3---------------------------|

----------------5-3h5h3h2h0-----0---0-|
----0-4-0-----0-------------0h3---5---|
------------5-------------------------|
----------4---------------------------|
--2-----------------------------------|
--------------------------------------|

------------------------------------|
--1-0h1h0---0---0-------------------|
----------2---4---2-0h2h------------|
------------------------4-1-4-2-----|
------------------------------------|
------------------------------------|

-----------------------------8-7-0--|
-------------------------7-8--------|
----------2-5-4-2----8-9------------|
----1-2-4----------9----------------|
--2---------------------------------|
------------------------------------|

---------8-11--12--14--15--14h15h14-|--12----------------------12----|
-------8----------------------------|------15--13--12--10--12--------|
-----9------------------------------|--------------------------------|
--10--------------------------------|--------------------------------|
------------------------------------|--------------------------------|
-----------------------0------------|--------------------------------|

------------------------|-------------------||
--12----10--------------|--9----------------||
--------------11--------|-------------------||
------------------------|-------------------||
------------------------|-------------------||
------------------------|--0----------------||

///////////////////////// + \\\\\\\\\\\\\\\\\\\\\\\\\\\\\\\

Under A Violet Moon

Ritchie Blackmore, Candice Night
Guitar II

E||--------------------|-----------------------------|
B||--------------------|--------------3h-4h-3--------|
G||--------------------|--------5--------------5-----|
D||--------------------|-----5-----5--------------5--|
A||--------------------|--3--------------------------|
E||--------------3--6--|-----------------------------|

----------------------------|--------------3h-4h-3-----|
--------------6h4h6h4-3-----|--------4--------------6--|
--------5----------------3--|-----5-----5--------------|
-----5-----5----------------|--------------------------|
--3-------------------------|--3-----------------------|
----------------------------|--------------------------|

Cm
---------------------------|-----------------------------|
--4h6h4h3------------------|--------------3h-4h-3--------|
----------5--3--5----------|--------5--------------5-----|
---------------------------|-----5-----5--------------5--|
---------------------------|--3--------------------------|
---------------------3--6--|-----------------------------|

--------------3h-4h-3-----|-----------8--10h-11h-10h-8--|
--------4--------------4--|--------8--------------------|
-----5-----5--------------|--5--8-----------------------|
--------------------------|-----------------------------|
--3-----------------------|-----------------------------|
--------------------------|-----------------------------|

Cm Cm
--------------------------|-----------------------------|
--8-----------------------|--------------3h-4h-3--------|
-----8--7h-8--------------|--------5--------------5-----|
--------------10----------|-----5-----5--------------5--|
--------------------------|--3--------------------------|
--------------------3--6--|-----------------------------|

Bb Cm
--------------------------|-----------------------------|
--------------6h-3--------|--------------3h-4h-3--------|
-----------3--------3-----|--------5--------------5-----|
--------3--------------3--|-----5-----5--------------5--|
-----5--------------------|--3--------------------------|
--6-----------------------|-----------------------------|

Bb
--------------------------|-----------------------------|
--------------6h-3--------|--------------3h-4h-3--------|
-----------3--------3-----|--------5--------------5-----|
--------3--------------3--|-----5-----5--------------5--|
-----5--------------------|--3--------------------------|
--6-----------------------|-----------------------------|

--------------------------|--------------------------|
--------------------------|--------------------------|
-----------3-----------3--|-----------5-----------3--|
--------3-----------3-----|--------6-----------3-----|
-----5-----------5--------|-----6-----------5--------|
--6-----------3-----------|--4-----------6-----------|

-----------------------------|----------------------------|
--------------3h-4h-3--------|--------------6h4h6h3-3-----|
--------5--------------5-----|--------5----------------3--|
-----5-----5--------------5--|-----5-----5----------------|
--3--------------------------|--3-------------------------|
-----------------------------|----------------------------|

-----------------------------|-------------------------|
--------------3h-4h-3--------|--------------3----------|
--------5--------------5-----|--------5----------------|
-----5-----5--------------5--|-----5-----5-------------|
--3--------------------------|--3----------------------|
-----------------------------|-------------------3--6--|

Cm Bb
-----------------------------|--------------------------|
--------------3h-4h-3--------|--------------6h-3--------|
--------5--------------5-----|-----------3--------3-----|
-----5-----5--------------5--|--------3--------------3--|
--3--------------------------|-----5--------------------|
-----------------------------|--6-----------------------|

Cm Bb
-----------------------------|--------------------------|
--------------3h-4h-3--------|--------------6h-3--------|
--------5--------------5-----|-----------3--------3-----|
-----5-----5--------------5--|--------3--------------3--|
--3--------------------------|-----5--------------------|
-----------------------------|--6-----------------------|

-----------------------------|--------------------------|
--------------3h-4h-3--------|--------------------------|
--------5--------------5-----|-----------3-----------3--|
-----5-----5--------------5--|--------3-----------3-----|
--3--------------------------|-----5-----------5--------|
-----------------------------|--6-----------3-----------|

--------------------------|-----------------------------|
--------------------------|--------------3h-4h-3--------|
-----------5-----------3--|--------5--------------5-----|
--------6-----------3-----|-----5-----5--------------5--|
-----6-----------5--------|--3--------------------------|
--4-----------6-----------|-----------------------------|

----------------------------|-----------------------------|
--------------6h4h6h3-3-----|--------------3h-4h-3--------|
--------5----------------3--|--------5--------------5-----|
-----5-----5----------------|-----5-----5--------------5--|
--3-------------------------|--3--------------------------|
----------------------------|-----------------------------|

---------------------------|--------------------------|
--------------3h-4h3-------|--------------4-----------|
--------5---------------5--|--------5--------5-----5--|
-----5-----5---------5-----|-----5-----5--------5-----|
--3------------------------|--3-----------------------|
---------------------------|--------------------------|

--------------------------|--------------------------|
-----------1-----------3--|--------------3-----------|
--------1-----------3-----|--------3--------3-----3--|
-----3-----------3--------|-----3-----3--------3-----|
--------------1-----------|--1-----------------------|
--1-----------------------|--------------------------|

--------------------------|--------------------------|
--------------4-----------|-----------4-----------4--|
--------5--------5-----5--|--------5-----------3-----|
-----5-----5--------5-----|-----6-----------5--------|
--3-----------------------|--------------------------|
--------------------------|--4-----------3-----------|

--------------------------|--------------------------|
-----------1-----------4--|-----------4-----------3--|
--------1-----------5-----|--------5-----------4-----|
-----3-----------5--------|-----5-----------5--------|
--------------3-----------|--3-----------------------|
--1-----------------------|--------------3-----------|

-----------------------------|----------------------------|
--------------3h-4h-3--------|--------------6h4h6h4-3-----|
--------5--------------5-----|--------5----------------3--|
-----5-----5--------------5--|-----5-----5----------------|
--3--------------------------|--3-------------------------|
-----------------------------|----------------------------|

-----------------------------|---------------------|
--------4-----3h-4h-3--------|---------------------|
-----5-----5-----------5-----|---------------------|
--------------------------5--|---------------------|
--3--------------------------|--3------------------|
-----------------------------|---------------3--6--|

Cm Bb
-----------------------------|--------------------------|
--------------3h-4h-3--------|--------------6h-3--------|
--------5--------------5-----|-----------3--------3-----|
-----5-----5--------------5--|--------3--------------3--|
--3--------------------------|-----5--------------------|
-----------------------------|--6-----------------------|

Cm Bb
-----------------------------|--------------------------|
--------------3h-4h-3--------|--------------6h-3--------|
--------5--------------5-----|-----------3--------3-----|
-----5-----5--------------5--|--------3--------------3--|
--3--------------------------|-----5--------------------|
-----------------------------|--6-----------------------|

-----------------------------|--------------------------|
--------------3h-4h-3--------|--------------------------|
--------5--------------5-----|-----------3-----------3--|
-----5-----5--------------5--|--------3-----------3-----|
--3--------------------------|-----5-----------5--------|
-----------------------------|--6-----------3-----------|

--------------------------|-----------------------------|
--------------------------|--------------3h-4h-3--------|
-----------5-----------3--|--------5--------------5-----|
--------6-----------3-----|-----5-----5--------------5--|
-----6-----------5--------|--3--------------------------|
--4-----------6-----------|-----------------------------|

Cm
----------------------------|-----------------------------|
--------------6h4h6h4-3-----|--------------3h-4h-3--------|
--------5----------------3--|--------5--------------5-----|
-----5-----5----------------|-----5-----5--------------5--|
--3-------------------------|--3--------------------------|
----------------------------|-----------------------------|

Bb Cm
--------------------------|-----------------------------|
--------------6h-3--------|--------------3h-4h-3--------|
-----------3--------3-----|--------5--------------5-----|
--------3--------------3--|-----5-----5--------------5--|
-----5--------------------|--3--------------------------|
--6-----------------------|-----------------------------|

Bb
--------------------------|-----------------------------|
--------------6h-3--------|--------------3h-4h-3--------|
-----------3--------3-----|--------5--------------5-----|
--------3--------------3--|-----5-----5--------------5--|
-----5--------------------|--3--------------------------|
--6-----------------------|-----------------------------|

--------------------------|--------------------------|
--------------------------|--------------------------|
-----------3-----------3--|-----------5-----------3--|
--------3-----------3-----|--------6-----------3-----|
-----5-----------5--------|-----6-----------5--------|
--6-----------3-----------|--4-----------6-----------|

-----------------------------|----------------------------|
--------------3h-4h-3--------|--------------6h4h6h4-3-----|
--------5--------------5-----|--------5----------------3--|
-----5-----5--------------5--|-----5-----5----------------|
--3--------------------------|--3-------------------------|
-----------------------------|----------------------------|

-----------------------------|-------------------------|
--------------3h-4h-3--------|--------------3----------|
--------5--------------5-----|--------5----------------|
-----5-----5--------------5--|-----5-----5-------------|
--3--------------------------|--3----------------------|
-----------------------------|-------------------3--6--|

--------------------------|--------------------------|
--------------4-----------|-----------1-----------3--|
--------5--------5-----5--|--------1-----------3-----|
-----5-----5--------5-----|-----3-----------3--------|
--3-----------------------|--------------1-----------|
--------------------------|--1-----------------------|

--------------------------|--------------------------|
--------------3-----------|--------------4-----------|
--------3--------3-----3--|--------5--------5-----5--|
-----3-----3--------3-----|-----5-----5--------5-----|
--1-----------------------|--3-----------------------|
--------------------------|--------------------------|

--------------------------|--------------------------|
-----------4-----------4--|-----------1-----------4--|
--------5-----------3-----|--------1-----------5-----|
-----6-----------5--------|-----3-----------5--------|
--------------------------|--------------3-----------|
--4-----------3-----------|--1-----------------------|

--------------------------|--------------------------|
-----------4-----------3--|--------------4-----------|
--------5-----------4-----|--------5--------5-----5--|
-----5-----------5--------|-----5-----5--------5-----|
--3-----------------------|--3-----------------------|
--------------3-----------|--------------------------|

--------------------------|--------------------------|
--------------4-----------|-----------1-----------3--|
--------5--------5-----5--|--------1-----------3-----|
-----5-----5--------5-----|-----3-----------3--------|
--3-----------------------|--------------1-----------|
--------------------------|--1-----------------------|

--------------------------|--------------------------|
--------------3-----------|--------------4-----------|
--------3--------3-----3--|--------5--------5-----5--|
-----3-----3--------3-----|-----5-----5--------5-----|
--1-----------------------|--3-----------------------|
--------------------------|--------------------------|

--------------------------|--------------------------|
-----------4-----------4--|-----------1-----------4--|
--------5-----------3-----|--------1-----------5-----|
-----6-----------5--------|-----3-----------5--------|
--------------------------|--------------3-----------|
--4-----------3-----------|--1-----------------------|

--------------------------|--------------------------|
-----------4-----------3--|--------------4-----------|
--------5-----------4-----|--------5--------5-----5--|
-----5-----------5--------|-----5-----5--------5-----|
--3-----------------------|--3-----------------------|
--------------3-----------|--------------------------|

--3-----------3--6--5--3--|--1-----------1--4--3--1--|
-----4-----4--------------|-----3-----3--------------|
--------3-----------------|--------3-----------------|
--------------------------|--------------------------|
--------------------------|--------------------------|
--------------------------|--------------------------|

--3-----------3/-8--7--8--|--10--11--10--8--7-8-7-8-7------|
-----4-----4--------------|---------------------------8----|
--------5-----------------|--------------------------------|
--------------------------|--------------------------------|
--------------------------|--------------------------------|
--------------------------|--------------------------------|

--6-----------6--11--10--8--|--10--------------10--13--11--10--|
-----8-----8----------------|------11------11------------------|
--------8-------------------|----------10----------------------|
----------------------------|----------------------------------|
----------------------------|----------------------------------|
----------------------------|----------------------------------|

--8--11--10--8---------------|-----8------------------|
----------------8--9--8------|--8-----8---------------|
-------------------------10--|-----------8------------|
-----------------------------|--------------10--------|
-----------------------------|------------------------|
-----------------------------|------------------------|

--------------------------|--------------------3--6--|
--------------------------|-----------------4--------|
-----------------------5--|--3-----------3-----------|
--------------3--5--6-----|-----5-----5--------------|
-----------3--------------|--------6-----------------|
--1--3--4-----------------|--------------------------|

--4h6h4h3-------------------|-----------------------|--------------------------|
----------6--4--3-----------|-----------------------|--------------------------|
-------------------5--3-----|-----------------------|-----------------------5--|
-------------------------6--|--5--3-----------------|--------------3--5--6-----|
----------------------------|--------6--5--3--------|-----------3--------------|
----------------------------|-----------------------|--1--3--4-----------------|

--------------------3--6--|--10--8h10h8h6-----6-----------|
-----------------4--------|----------------6-----6--------|
--3-----------3-----------|-------------------------7-----|
-----5-----5--------------|----------------------------8--|
--------6-----------------|-------------------------------|
--------------------------|-------------------------------|

----------------------------|-----------------------------|
----------------------------|--------------3h-4h-3--------|
--8--7-8-7-5--3--5----------|--------5--------------5-----|
----------------------------|-----5-----5--------------5--|
----------------------------|--3--------------------------|
----------------------3--6--|-----------------------------|

--------------3h-4h-3-----|--------------------------|-------------------------|
--------4--------------6--|----4--3h4-3--------------|-------------------------|
-----5-----5--------------|--------------5--3--5--3--|-------------------------|
--------------------------|--------------------------|--6--5--5--3--5----------|
--3-----------------------|--------------------------|-------------------------|
--------------------------|--------------------------|-------------------3--6--|

Cm Bb
-----------------------------|--------------------------|
--------------3h-4h-3--------|--------------6h-3--------|
--------5--------------5-----|-----------3--------3-----|
-----5-----5--------------5--|--------3--------------3--|
--3--------------------------|-----5--------------------|
-----------------------------|--6-----------------------|

Cm Bb
-----------------------------|--------------------------|
--------------3h-4h-3--------|--------------6h-3--------|
--------5--------------5-----|-----------3--------3-----|
-----5-----5--------------5--|--------3--------------3--|
--3--------------------------|-----5--------------------|
-----------------------------|--6-----------------------|

-----------------------------|--------------------------|
--------------3h-4h-3--------|--------------------------|
--------5--------------5-----|-----------3-----------3--|
-----5-----5--------------5--|--------3-----------3-----|
--3--------------------------|-----5-----------5--------|
-----------------------------|--6-----------3-----------|

--------------------------|-----------------------------|
--------------------------|--------------3h-4h-3--------|
-----------5-----------3--|--------5--------------5-----|
--------6-----------3-----|-----5-----5--------------5--|
-----6-----------5--------|--3--------------------------|
--4-----------6-----------|-----------------------------|

Cm
----------------------------|-----------------------------|
--------------6h4h6h4-3-----|--------------3h-4h-3--------|
--------5----------------3--|--------5--------------5-----|
-----5-----5----------------|-----5-----5--------------5--|
--3-------------------------|--3--------------------------|
----------------------------|-----------------------------|

Bb Cm
--------------------------|-----------------------------|
--------------6h-3--------|--------------3h-4h-3--------|
-----------3--------3-----|--------5--------------5-----|
--------3--------------3--|-----5-----5--------------5--|
-----5--------------------|--3--------------------------|
--6-----------------------|-----------------------------|

Bb
--------------------------|-----------------------------|
--------------6h-3--------|--------------3h-4h-3--------|
-----------3--------3-----|--------5--------------5-----|
--------3--------------3--|-----5-----5--------------5--|
-----5--------------------|--3--------------------------|
--6-----------------------|-----------------------------|

--------------------------|--------------------------|
--------------------------|--------------------------|
-----------3-----------3--|-----------5-----------3--|
--------3-----------3-----|--------6-----------3-----|
-----5-----------5--------|-----6-----------5--------|
--6-----------3-----------|--4-----------6-----------|

-----------------------------|----------------------------|
--------------3h-4h-3--------|--------------6h4h6h4-3-----|
--------5--------------5-----|--------5----------------3--|
-----5-----5--------------5--|-----5-----5----------------|
--3--------------------------|--3-------------------------|
-----------------------------|----------------------------|

-----------------------------|-------------------------|
--------------3h-4h-3--------|--------------3----------|
--------5--------------5-----|--------5----------------|
-----5-----5--------------5--|-----5-----5-------------|
--3--------------------------|--3----------------------|
-----------------------------|-------------------3--6--|

--------------------------|--------------------------|
--------------4-----------|-----------1-----------3--|
--------5--------5-----5--|--------1-----------3-----|
-----5-----5--------5-----|-----3-----------3--------|
--3-----------------------|--------------1-----------|
--------------------------|--1-----------------------|

--------------------------|--------------------------|
--------------3-----------|--------------4-----------|
--------3--------3-----3--|--------5--------5-----5--|
-----3-----3--------3-----|-----5-----5--------5-----|
--1-----------------------|--3-----------------------|
--------------------------|--------------------------|

--------------------------|--------------------------|
-----------4-----------4--|-----------1-----------4--|
--------5-----------3-----|--------1-----------5-----|
-----6-----------5--------|-----3-----------5--------|
--------------------------|--------------3-----------|
--4-----------3-----------|--1-----------------------|

--------------------------|--------------------------|
-----------4-----------3--|--------------4-----------|
--------5-----------4-----|--------5--------5-----5--|
-----5-----------5--------|-----5-----5--------5-----|
--3-----------------------|--3-----------------------|
--------------3-----------|--------------------------|

--------------------------|--------------------------|
--------------4-----------|-----------1-----------3--|
--------5--------5-----5--|--------1-----------3-----|
-----5-----5--------5-----|-----3-----------3--------|
--3-----------------------|--------------1-----------|
--------------------------|--1-----------------------|

--------------------------|--------------------------|
--------------3-----------|--------------4-----------|
--------3--------3-----3--|--------5--------5-----5--|
-----3-----3--------3-----|-----5-----5--------5-----|
--1-----------------------|--3-----------------------|
--------------------------|--------------------------|

--------------------------|--------------------------|
-----------4-----------4--|-----------1-----------4--|
--------5-----------3-----|--------1-----------5-----|
-----6-----------5--------|-----3-----------5--------|
--------------------------|--------------3-----------|
--4-----------3-----------|--1-----------------------|

--------------------------|--------------------------|
-----------4-----------3--|--------------4-----------|
--------5-----------4-----|--------5--------5-----5--|
-----5-----------5--------|-----5-----5--------5-----|
--3-----------------------|--3-----------------------|
--------------3-----------|--------------------------|

--------------------------|--------------------------|
--------------4-----------|-----------1-----------3--|
--------5--------5-----5--|--------1-----------3-----|
-----5-----5--------5-----|-----3-----------3--------|
--3-----------------------|--------------1-----------|
--------------------------|--1-----------------------|

--------------------------|--------------------------|
--------------3-----------|--------------4-----------|
--------3--------3-----3--|--------5--------5-----5--|
-----3-----3--------3-----|-----5-----5--------5-----|
--1-----------------------|--3-----------------------|
--------------------------|--------------------------|

--------------------------|--------------------------|
-----------4-----------4--|-----------1-----------4--|
--------5-----------3-----|--------1-----------5-----|
-----6-----------5--------|-----3-----------5--------|
--------------------------|--------------3-----------|
--4-----------3-----------|--1-----------------------|

--------------------------|--------------------------|
-----------4-----------3--|--------------4-----------|
--------5-----------4-----|--------5--------5-----5--|
-----5-----------5--------|-----5-----5--------5-----|
--3-----------------------|--3-----------------------|
--------------3-----------|--------------------------|

--------------------------|--------------------------|
--------------4-----------|-----------1-----------3--|
--------5--------5-----5--|--------1-----------3-----|
-----5-----5--------5-----|-----3-----------3--------|
--3-----------------------|--------------1-----------|
--------------------------|--1-----------------------|

--------------------------|--------------------------|
--------------3-----------|--------------4-----------|
--------3--------3-----3--|--------5--------5-----5--|
-----3-----3--------3-----|-----5-----5--------5-----|
--1-----------------------|--3-----------------------|
--------------------------|--------------------------|

--------------------------|--------------------------|
-----------4-----------4--|-----------1-----------4--|
--------5-----------3-----|--------1-----------5-----|
-----6-----------5--------|-----3-----------5--------|
--------------------------|--------------3-----------|
--4-----------3-----------|--1-----------------------|

--------------------------|--------------------------|
-----------4-----------3--|--------------4-----------|
--------5-----------4-----|--------5--------5-----5--|
-----5-----------5--------|-----5-----5--------5-----|
--3-----------------------|--3-----------------------|
--------------3-----------|--------------------------|

--------------------------|--------------------------|
--------------4-----------|-----------1-----------3--|
--------5--------5-----5--|--------1-----------3-----|
-----5-----5--------5-----|-----3-----------3--------|
--3-----------------------|--------------1-----------|
--------------------------|--1-----------------------|

--------------------------|--------------------------|
--------------3-----------|--------------4-----------|
--------3--------3-----3--|--------5--------5-----5--|
-----3-----3--------3-----|-----5-----5--------5-----|
--1-----------------------|--3-----------------------|
--------------------------|--------------------------|

--------------------------|--------------------------|
-----------4-----------4--|-----------1-----------4--|
--------5-----------3-----|--------1-----------5-----|
-----6-----------5--------|-----3-----------5--------|
--------------------------|--------------3-----------|
--4-----------3-----------|--1-----------------------|

--------------------------|--------------------------|
-----------4-----------3--|--------------4-----------|
--------5-----------4-----|--------5--------5-----5--|
-----5-----------5--------|-----5-----5--------5-----|
--3-----------------------|--3-----------------------|
--------------3-----------|--------------------------|

--------------------------|--------------------------|
--------------4-----------|-----------1-----------3--|
--------5--------5-----5--|--------1-----------3-----|
-----5-----5--------5-----|-----3-----------3--------|
--3-----------------------|--------------1-----------|
--------------------------|--1-----------------------|

--------------------------|--------------------------|
--------------3-----------|--------------4-----------|
--------3--------3-----3--|--------5--------5-----5--|
-----3-----3--------3-----|-----5-----5--------5-----|
--1-----------------------|--3-----------------------|
--------------------------|--------------------------|

--------------------------|--------------------------|
-----------4-----------4--|-----------1-----------4--|
--------5-----------3-----|--------1-----------5-----|
-----6-----------5--------|-----3-----------5--------|
--------------------------|--------------3-----------|
--4-----------3-----------|--1-----------------------|

--------------------------|--------------------------|
-----------4-----------3--|--------------4-----------|
--------5-----------4-----|--------5--------5-----5--|
-----5-----------5--------|-----5-----5--------5-----|
--3-----------------------|--3-----------------------|
--------------3-----------|--------------------------|

--------------------------|--------------------------|
--------------4-----------|-----------1-----------3--|
--------5--------5-----5--|--------1-----------3-----|
-----5-----5--------5-----|-----3-----------3--------|
--3-----------------------|--------------1-----------|
--------------------------|--1-----------------------|

--------------------------|--------------------------|
--------------3-----------|--------------4-----------|
--------3--------3-----3--|--------5--------5-----5--|
-----3-----3--------3-----|-----5-----5--------5-----|
--1-----------------------|--3-----------------------|
--------------------------|--------------------------|

--------------------------|--------------------------|
-----------4-----------4--|-----------1-----------4--|
--------5-----------3-----|--------1-----------5-----|
-----6-----------5--------|-----3-----------5--------|
--------------------------|--------------3-----------|
--4-----------3-----------|--1-----------------------|

--------------------------|--------------------------|
-----------4-----------3--|--------------4-----------|
--------5-----------4-----|--------5--------5-----5--|
-----5-----------5--------|-----5-----5--------5-----|
--3-----------------------|--3-----------------------|
--------------3-----------|--------------------------|

--------------------------|--------------------------|
--------------4-----------|-----------1-----------3--|
--------5--------5-----5--|--------1-----------3-----|
-----5-----5--------5-----|-----3-----------3--------|
--3-----------------------|--------------1-----------|
--------------------------|--1-----------------------|

--------------------------|--------------------------|
--------------3-----------|--------------4-----------|
--------3--------3-----3--|--------5--------5-----5--|
-----3-----3--------3-----|-----5-----5--------5-----|
--1-----------------------|--3-----------------------|
--------------------------|--------------------------|

--------------------------|--------------------------|
-----------4-----------4--|-----------1-----------4--|
--------5-----------3-----|--------1-----------5-----|
-----6-----------5--------|-----3-----------5--------|
--------------------------|--------------3-----------|
--4-----------3-----------|--1-----------------------|

--------------------------|--------------------------|
-----------4-----------3--|-----------1-----------4--|
--------5-----------4-----|--------1-----------3-----|
-----5-----------5--------|-----3-----------5--------|
--3-----------------------|--------------3-----------|
--------------3-----------|--1-----------------------|

--------------------------|--------------------------|------3----3--------||
-----------4-----------3--|--------------------------|------3----4--------||
--------5-----------4-----|--------5-----4-----------|------4----5--------||
-----6-----------5--------|-----5-----5-----5-----5--|------5----5--------||
--------------------------|--3-----------------5-----|------5----3--------||
--4-----------3-----------|--------------------------|------3-------------||

Re: Blackmores Night Tabs!!!

http://www.laster.it/spartiti/b/blackmores_night/view#

: : : I cant anywhere find a decent tad for Blackmores night. No1 has any. For songs such as be mine tonight, Possum's Last dance, and spirit of the sea. Someone helo me find somewhere. or send me tabs.
: : : -M@

Re: Blackmores Night Tabs!!!

:
: I cant anywhere find a decent tad for Blackmores night. No1 has any. For songs such as be mine tonight, Possum's Last dance, and spirit of the sea. Someone helo me find somewhere. or send me tabs.
: -M@
Hello - am searching for some tab of blackmores night meself and cant seem to find any - have you found anything.
Thanks

Re: Blackmores Night Tabs!!!...me too

: :
: : I cant anywhere find a decent tad for Blackmores night. No1 has any. For songs such as be mine tonight, Possum's Last dance, and spirit of the sea. Someone helo me find somewhere. or send me tabs.
: : -M@
: Hello - am searching for some tab of blackmores night meself and cant seem to find any - have you found anything.
: Thanks

Re: Blackmores Night Tabs!!!...me too

me too, me too! :-D Please- if you find something, send it to me...:-)Thanks

Re: Blackmores Night Tabs!!!

Hi there, i didn´t find any tab pages on the web, so I´ve decided to try by miself to figurate out the tabs of Blackmore´s night.
I only know the chords of a couple of songs. If you´re interested e mail me!

Cheers

Re: Blackmores Night Tabs!!!

Hi, My name is Emilio, I'm from Brazil, and i'm very interested in Blackmores Night chords. I've looked everywhere, and found only "Spirit of the Sea". If you have any other, i would be very thankful if you could sent me.

: Cheers

Re: Blackmores Night Tabs!!!

u asshole,, better work it out on your own..
Go and fuck urself and don't ever ask for tabs again...
bye ,, take care... Ritchie blackmore

Re: Blackmores Night Tabs!!!

: u asshole,, better work it out on your own..
: Go and **** urself and don't ever ask for tabs again...
: bye ,, take care... Ritchie blackmore

Re: Blackmores Night Tabs!!!

: u asshole,, better work it out on your own..
: Go and **** urself and don't ever ask for tabs again...
: bye ,, take care... Ritchie blackmore

Aldo Nova "Blood on the bricks" Tab Needed.

I need the tab for "Blood on the Bricks". ALso any other Aldo Nova tunes.
ANd andy Vandenberg stuff.
Thanks
Daniel

Michael Angelo Tabs Needed

does anyone know where I can find tabs for Michael Angelo????

Re: Michael Angelo Tabs Needed

: does anyone know where I can find tabs for Michael Angelo???? especially deck the halls tab

Re: Michael Angelo Tabs Needed

: does anyone know where I can find tabs for Michael Angelo????

At mxtabs.net

Re: Michael Angelo Tabs Needed

I guess you´ll never get those since michael angelo plays so fast, it´s so difficult to get the tabs for his songs. I once tried with No Boundaries but man, he´s so fast and uses some techniques I barely know it was too hard to get the tab for this song.

Re: Michael Angelo Tabs Needed

Powertabs.net has the tablature for Michael Angelo - No Boundaries but whenever i download it in the zip/whatever file i can't read the gay shit.,.too gay.

Re: Michael Angelo Tabs Needed

:
: Powertabs.net has the tablature for Michael Angelo - No Boundaries but whenever i download it in the zip/whatever file i can't read the gay shit.,.too gay.

Re: Michael Angelo Tabs Needed

the ptb for no boundaries works fine, however you might want to check to make sure the file extention is .ptb i'm not sure about that. i hear michael angelo himself goes on to the powertab.net from time to time.

Lit Addicted Bass Tab

Been scouring for bass tab for "Addicted" from Lit. Has anyone seen it, or tabbed it? If so, please email me with any lead I could follow up on. I've checked most the usual tab sites.

!!PLEASE, CAN SOMEONE SEND ME BLACKMORE'S NIGHT TABS!!

Hi everyone!

I'm desperate... help me find these tabs on Blackmore's Night!

Blackmore's Night - Wind In The Willows
Blackmore's Night - Renaissance Faire
Blackmore's Night - Magical World
Blackmore's Night - Midwinter's Night
Blackmore's Night - Again Someday

I would be very gladely if someone could find atleast one of these. I have spent more than 7 hours of seeking for these songs. And I can't find them : (( So if someone is kind and helpfull... then give me a little helping hand.

Best Wishes // Magnus

Re: BLACKMORE'S NIGHT TABS!!

Blackmore's Night!
WIND IN THE WILLOWS

(hi, i'm mark, here's a little help for you guys... please send me feedbacks - bratinello929@yahoo.com / bratinello928@yahoo.com)

|: D G | A F#m | Hm Em | A D :|

D G A D
As I went a walking One morning in spring
Hm Em A D
I met with some travelers On an old country lane
D G A D
One was an old man The second a maid
Hm Em A D
The third was a young boy who smiled as he said

G D G D
With the wind in the willows The birds in the sky
G D Em A
There's a bright sun to warm us wherever we lie...
D G A D
We have bread and fishes and a jug of red wine
Hm Em A D G | A F#m | Hm Em | A D |
To share on our journey with all... of mankind.

D G A D
So I asked them to tell me their names and their race
Hm Em A D
So I could remember each smile on their face
D G A D
"Our names, they mean nothing...They change throughout time
Hm Em A D
So come sit beside us and share in our wine"

G D G D
With the wind in the willows The birds in the sky
G D Em A
There's a bright sun to warm us wherever we lie...
D G A D
We have bread and fishes and a jug of red wine
Hm Em A D G | A F#m | Hm Em | A D |
To share on our journey with all... of mankind.

D G A D
So I sat down beside them With flowers all around
Hm Em A D
We ate from a mantle Spread out on the ground
D G A D
They told me of prophets And peoples and kings
Hm Em A D
And all of the one god that knows everything

D G A D
"We're traveling to Glaston Over England's green lanes
Hm Em A D
To hear of men's troubles To hear of their pains
D G A D
We travel the wide world Over land and the sea
Hm Em A D
To tell all the people How they can be free..."

G D G D
With the wind in the willows The birds in the sky
G D Em A
There's a bright sun to warm us wherever we lie...
D G A D
We have bread and fishes and a jug of red wine
Hm Em A D G | A F#m | Hm Em | A D |
To share on our journey with all... of mankind.

D G A D
So sadly I left them On that old country lane
Hm Em A D
For I knew that I'd never see them again
D G A D
One was an old man The second a maid
Hm Em A D
The third was a young boy who smiled as he said...

G D G D
With the wind in the willows The birds in the sky
G D Em A
There's a bright sun to warm us wherever we lie...
D G A D
We have bread and fishes and a jug of red wine
Hm Em A D
To share on our journey with all of mankind.

G D G D
With the wind in the willows The birds in the sky
G D Em A
There's a bright sun to warm us wherever we lie...
D G A D
We have bread and fishes and a jug of red wine
Hm Em A D G |A F#m |Hm Em |
To share on our journey with all... of mankind.
A D
all of mankind

: Blackmore's Night - Wind In The Willows
: Blackmore's Night - Renaissance Faire
: Blackmore's Night - Magical World
: Blackmore's Night - Midwinter's Night
: Blackmore's Night - Again Someday

: I would be very gladely if someone could find atleast one of these. I have spent more than 7 hours of seeking for these songs. And I can't find them : (( So if someone is kind and helpfull... then give me a little helping hand.

:enjoy.....

Re: !!PLEASE, CAN SOMEONE SEND ME BLACKMORE'S NIGHT TABS!!

http://www.ritchieblackmore.de/Guitar_Tabs/Shadow_of_the_Moon_Tabs/shadow_of_the_moon_tabs.html

Hope this'll help ya.

*Nithrogath*

Re: !!PLEASE, CAN SOMEONE SEND ME BLACKMORE'S NIGHT TABS!!

: Hi everyone!

: I'm desperate... help me find these tabs on Blackmore's Night!

: Blackmore's Night - Wind In The Willows
: Blackmore's Night - Renaissance Faire
: Blackmore's Night - Magical World
: Blackmore's Night - Midwinter's Night
: Blackmore's Night - Again Someday

: I would be very gladely if someone could find atleast one of these. I have spent more than 7 hours of seeking for these songs. And I can't find them : (( So if someone is kind and helpfull... then give me a little helping hand.

: Best Wishes // Magnus

Re: !!PLEASE, CAN SOMEONE SEND ME BLACKMORE'S NIGHT TABS!!

 !!PLEASE, CAN SOMEONE SEND ME BLACKMORE'S NIGHT TABS!!

This popular thread has been given its own page : Re: !!PLEASE, CAN SOMEONE SEND ME BLACKMORE'S NIGHT TABS!!

Re: !!PLEASE, CAN SOMEONE SEND ME BLACKMORE'S NIGHT TABS!!

Ok, the site messed up the formatting. I'll post it on my website: www.captainnemo.us/BlackmoresNight-WindintheWillows.txt

I'll try to post it on some tab sites so others can enjoy it too. I think it's a really good song!

Bill

Post new comment

The content of this field is kept private and will not be shown publicly.
CAPTCHA
This question is for testing whether you are a human visitor and to prevent automated spam submissions. Do not include any spaces in your answer.
Image CAPTCHA
Copy the characters (respecting upper/lower case) from the image.

Contact | Advertise | Contents | Privacy Policy | Forum

This site is published by Hitsquad Pty Ltd. Copyright © 1999 - 2017 , All Rights Reserved.