Re: i need jewel's "near you always" guitar tab

Advertisement
Posted by matiel Lovejoy on Thu, 01/30/03 - 18:17:22.

: i need jewel's "near you always" guitar tab

Near You Always
Played on a 12-string guitar
tuned 1/2 step down, and dropped D.
Db Ab Db Gb Bb Eb

Written as if in standard tuning.
intro
D5 D5/C# D5/B D/A
E---------------------------|------------------------------|
B-----3-----------3---------|------3--------------3--------|
G---------------------6-----|---------4--------------------|
D--------0------------------|------------------------4-----|
A--5--------5--4--------4---|--2----------2--0----------0--|
E---------------------------|------------------------------|

G Gm D/F# D
E---------------------------|------------------------------|
B-----3-----------3---------|------3--------------3--------|
G--4-----4-----3------3-----|--2------2-------1------1-----|
D---------------------------|------------------------------|
A---------------------------|------------------------------|
E--5--------5--5--------5---|--4----------4---3---------3--|

Em7 D
E---------------------------|-------------------------------|
B-----3-----------3---------|--3--3-------------------------|
G--0-----0-----0------0-----|--2------2---------------------|
D---------------------------|--0----------0-----------------|
A---------------------------|--0----------------------------|
E--2--------2--2--------2---|--0----------------------------|
*1 *2
*1 - Downward strum *2 - harmonic

The intro is suppose to give you an idea of the picking style,
fer the restof the transcript chords will be given.
Most of the chords can be found in the intro, so if you don't think know you it....look it up.

Verse
D5 D5/C# D5/B D/A G A A2 A
|\\ \\ |\\ \\ |\\\\|\\ \ \| repeat

Bm D G Gm D/F# D Em7 D
|\\\\|\\\\|\\ \\ |\\ \\ |\\\\|\\\ |

Bridge
A7,4
|\\\\| E-----0-----0-----0-----0---|-----0----0-----0------0---|
B--7-----7-----2-----3------|--8----------7-------------|
G---------------------------|--------7-----------7------|
D---------------------------|---------------------------|
A--0?----------0?-----------|--0?---------0?------------|
E---------------------------|---------------------------|

E-----0-----0------0------0--|-------0------0-----0-----0---|
B--5-----5-----2-------3-----|--10-------------8------------|
G----------------------------|----------0------------0------|
D----------------------------|------------------------------|
A--0?----------0?------------|--0?-------------0?-----------|
E----------------------------|------------------------------|

E-----0-----0------0------0--|-------0------0-----0-----0---|
B--7-----7-----2------3------|--8--------------7------------|
G----------------------------|----------7------------7------|
D----------------------------|------------------------------|
A--0?----------0?------------|--0?-------------0?-----------|
E----------------------------|------------------------------|

F#m Bm Bm2 Bm G Gm D/F# D Em7 D
|\\\\|\\\\|\\ \\ |\\ \\ |\\ \\ |\\\\|\\\ |

Post new comment

The content of this field is kept private and will not be shown publicly.
CAPTCHA
This question is for testing whether you are a human visitor and to prevent automated spam submissions. Do not include any spaces in your answer.
Image CAPTCHA
Copy the characters (respecting upper/lower case) from the image.

Contact | Advertise | Contents | Privacy Policy

This site is published by Hitsquad Pty Ltd. Copyright © 1999 - 2014 , All Rights Reserved.