Slick shoes Angel !!!!!

Posted by kt on Wed, 09/27/00 - 15:13:48.

I need tab for the Song "Angel" by Slick shoes !!!

Comment viewing options

Select your preferred way to display the comments and click "Save settings" to activate your changes.

Re: Slick shoes Angel !!!!!

:you can find "Angel" by slick shoes on the website www.punkhardcore.com. Just go to guitar tabs and click on RS the move down to slickshoes
there should be 2 options, take the first one

Re: Slick shoes Angel !!!!!

slick shoes is soo good i would eat them for breakfast.
shawn from georgia,
some people eat bugs, blah

Re: Slick shoes Angel !!!!!

: I need tab for the Song "Angel" by Slick shoes !!!

Re: Slick shoes Angel !!!!!

: : I need tab for the Song "Angel" by Slick shoes !!!

Re: Slick shoes Angel !!!!!

: I need tab for the Song "Angel" by Slick shoes !!!

Thanks

Re: Slick shoes Angel !!!!!

: I need tab for the Song "Angel" by Slick shoes !!!

Re: Slick shoes Angel !!!!!-but i know the intro

: : I need tab for the Song "Angel" by Slick shoes !!!
But i do have the intro

Re: Slick shoes Angel !!!!!-but i know the intro

well, the song is not too hard, just some parts were the guitarist uses two or more guitars to get a "sound" that's just kick ass.

well you said you know the intro, but ill put my verion just so we can see which one is right.

E---------------------------------------------------------
B---------------------------------------------------------
G---------------------------------------------------------
D-9~--8-9-8---8-9-8----------------------------------
A-----------9-------7~--11-9-----------------------
E-------------------------------------------

E-------------------------------------
B------------------------------------
G-8--11-8--6--9-8-6--------------------------
D------------------------------------
A-6--9--6--4--7-6-4------6----7-6-7-9------------
E--------------------7-9---7------------
+palm mute--------+

E------------------------------
B--------------------------------------------
G----------9----6--------11-8----------------
D-9---6-4--9--9-6----9---11-8--11-8----------
A-9-9-6-4--7--6-4----9---9--6--11-8----------
E-7-6-4-2------------7---------9--6----------

E------------------------
B---------------------------------------
G-------3-4-3--9-11-13--11-9----13-11-9---6-4--
D-9---4-----4--9-11-13--11-9----13-11-9-9-6-4---
A-9------------7-9--11--9--7-9--11-9--7-6-4-2--
E-7--2----------------------------------

E--------------------------
B------------------------------------------
G-4---------------------------------------
D-4-2-6-4--4-3-4-3-6-4-3-3-4-3-4-3-2--4-2---
A-2-2-6-4--2-1-2-1-4-2-1-1-2-1-2-1-2--4-2--
E---0-4-2--------------------------0--2-0---

and then it's mostly the verse parts. hey, this is my start, but i promise it will get better and worse. email me and tell me what i got wrong or what you found out, cause i would like to know also. slick shoes rocks!

Re: Slick shoes Angel !!!!!

: I need tab for the Song "Angel" by Slick shoes !!!

Re: Slick shoes Angel !!!!!

: : I need tab for the Song "Angel" by Slick shoes !!! If anyone knows where I can find it please email me!

Re: Slick shoes Angel... GIVE ME TABS

WHY DOESNT ANYONE JUST PUT THE TAB ON THE WEBSITRE... OR ATLEAST GIVE A GOOD SITE TO GO TO FOR IT... I LEARNED HALF THE SONG MYSELF AND I HAVENT BEEN PLAYIN FOR TOO LONG... IF I COULD DO IT THAN WHY DOESNT SOMEONE THATS GOOD AT PLAYING GUITAR GIVE EVERYONE THE TABS!!!!!!!!!!!!!!!!!!

Re: Slick shoes Angel !!!!!

: : : I need tab for the Song "Angel" by Slick shoes !!! If anyone knows where I can find it please email me!

Re: Slick shoes Angel !!!!!

www.christianguitar.ws/christian/s/slick_shoes/angel.txt

find tab here

ok, lets get with it. I need "Angel" by Slick Shoes

: www.christianguitar.ws/christian/s/slick_shoes/angel.txt

: find tab here

Post new comment

The content of this field is kept private and will not be shown publicly.
CAPTCHA
This question is for testing whether you are a human visitor and to prevent automated spam submissions. Do not include any spaces in your answer.
Image CAPTCHA
Copy the characters (respecting upper/lower case) from the image.

Contact | Advertise | Contents | Privacy Policy | Forum

This site is published by Hitsquad Pty Ltd. Copyright © 1999 - 2017 , All Rights Reserved.