All in tabs

All in tabs

nearly tabs. from all the bands in the world

This was a website which in 1999 claimed to have TABs from all the bands in the world.

The original website is long since gone, however we've left this listing here for those of you who would like to join the discussion.

Comment viewing options

Select your preferred way to display the comments and click "Save settings" to activate your changes.

looking for

hot child in the city tab. by nick gilder

Blessid Union of Souls tab

I'm looking for the Tab for "Walk of the Buzz" by Blessid Union of Souls. If anyone know it, or knows where I can get it please E-Mail me
Thanks!

Clumsy tabs

if anyone has both guitar parts for clumsy or any of the other OLP songs please send them to me!

LeeAnn Womack

Would like to get tab to new song, "I hope you dance"

Re: LeeAnn Womack

: Would like to get tab to new song, "I hope you dance"

HERES THE SITE FOR WHAT YOU'RE LOOKING FOR:
http://www.tabcountry.com/song141/Lee-Ann-Womack-I-Hope-You-Dance

elton john (someday out of the blue)

does anybody have the tabs to elton john's someday out of the blue from the movie El Dorado? if so please e-mail me and mabye i have a tab you want

stan rigdway

hallo!
i need the lyrics and the tabs or chords of the stan rigdway song camouflage. please help me. thanx

"I'm Alright"---Neil Zaza

Does anyone have the tab of the song "I'm Alright", the song of Neil Zaza???
Please sent to me ......thanks !!!

Re: "I'm Alright"---Neil Zaza

yeah.. any Nail Zaza song will be Awsome, he is realy cool guy with great music touch... if anyone has tabz of him it will be great, Im ready to do some trading, I have tonz of stuff by Malmsteen,Paul Gilbert, Racer X, etc'...
plz contact me

Re: "I'm Alright"---Neil Zaza

Do you have tabs of Neil zaza????
Does anyone have the tab of the song "I'm Alright", the song of Neil Zaza???
Please sent to me ......thanks !!!

blink182

hey. i need adams song. can you help me out a lil?

Re: blink182

: hey. i need adams song. can you help me out a lil?

I like BLINK182

Re: blink182

hey i need stay together for the kids can you help me some???

Re: blink182

: hey. i need adams song. can you help me out a lil?

Re: blink182

www.punkhardcore.com has more than one version of adam's song

NEED TABS FAST

DEFTONES, CHANGE ... PANTERA, REVOLUTION ......
A PERFECT CIRCLE, JUDITH ....

Re: NEED TABS FAST

: DEFTONES, CHANGE ... PANTERA, REVOLUTION ......
: A PERFECT CIRCLE, JUDITH ....

Re: NEED TABS FAST

: : DEFTONES, CHANGE ... PANTERA, REVOLUTION ......
: : A PERFECT CIRCLE, JUDITH ....GENE COLES STAR THE CAR AND ALL LYNYRD SKYNYRD ARE ANTHING SOUTHERN ROCK

SOUTHERN ROCK

I NEED TAB FOR GENE COLES START THE CAR AND ANY SOUTHERN ROCK TAB LYNYRD SKYNYRD BLACKFOOT ALLMAN BROS MOLLY HACHETT ARS

QUEENS OF THE STONE AGE

I need the tab stoner group QUEENS OF THE STONE AGE

STONER KYUSS

I need the tab stoner group Kyuss and the tab of group QUEENS OF THE STONE AGe

Re: STONER KYUSS

se como se toca katamaran y one inch men con el bajo

Re: STONER KYUSS

: I need the tab stoner group Kyuss and the tab of Katzenjammer

Re: STONER KYUSS

: I need the tab stoner group Kyuss

Re: STONER KYUSS

: : I need the tab stoner group Kyuss

Re: STONER KYUSS

: : : I need the tab stoner group Kyuss
SLEEPS HOLY MOUNTAINEER

the insyderz

hi, i need tablature for "awesome god" by the insyderz. if anyone has it, please email it to me or just the chords would be nice. please label the subject as "insyderz" otherwise i will think its junk mail. Thanx!

Re: the insyderz

There is a ton of Insyderz music at "Rockin with the Cross" I'd look there first. Just check out the archives.

Re: the insyderz

There is a ton of Insyderz music at "Rockin with the Cross" I'd look there first. Just check out the archives.

I need tab for Tracy Chapman's "For You"

I would really apprecitate it if someone was willing to share a tab for "For You" by Tracy Chapman. It's off her first album. Please email me and let men know.
Thanx

Re: I need tab for Tracy Chapman's "For You"

Adriel,
I'm looking for the same tab, did you find someone who shared his knowledge with you? Please say yes. thank you.

Re: I need tab for Tracy Chapman's "For You"

im looking for the same tab, can u send him to niels261@pandora.be

plzzzz can u do that
i send u tabs back (say wich ones)

tab

requesting tab for a song called "mouth" by merril bainbridge recorded in 1996 i believe. any help would be appreciated. thanks

desperation and hope (ELP)

I am very happy that you are reading this letter , because that means that I can have hope to find the tabs of "Pictures At An Exhibition " ( cooperation of Emerson and Mussorgski ).
May be the INfinity will help me at the end....
I am already dreaming.....and playing...

Generation X

I need the guitar tabs for Kiss me Deadly by Generation X!!! If anyone could help me that would be awesome!!!

kiss me deadly for the guitar

if anyone could get me the guitar tab for Kiss Me Deadly by Generation X I would really appreciate it. I don't feel like trying to figure it out.

Generation X - kiss me deadly bass

i'm looking for tha bass, so...
thanks

Re: Generation X - kiss me deadly bass

i need the lirycs of "kiss Me Deadly",by Generation X..PLEASE send me by mail at "dabel.galati@game-network.net"if you have it!!

GEN X

ah! ive been lookin EVERYWHERE for the tabs to that song! NOONE HAS IT!

tabbers are poop.

why wont the dumb people at tabcrawler or maxtabs or somehting just figure the dumb thing out. i want those tabs, dammit!

I need this fast!

I nedd the tabs for Break Stuff by Limp Bisket

Faith Hill

Need guitar tabs for Breathe by Faith Hill.
Bass tabs for Tearin it up & Burnin' it Down by Garth Brooks also.

Faith Hill

I need tabs for there you´ll be soundtrack of Pearl Harbor

Re: Faith Hill

: Need guitar tabs for Breathe by Faith Hill.
: Bass tabs for Tearin it up & Burnin' it Down by Garth Brooks also.

|need guitar tab for lets make love by faith hill.

Re: Faith Hill

: Need guitar tabs for Breathe by Faith Hill.
: Bass tabs for Tearin it up & Burnin' it Down by Garth Brooks also.
I am looking for the sheet music for Faith Hill's Breathe

Re: Faith Hill

A7
6:--------------------------------------
5:--0-----------------------------------
4:------2-------------2-----------------
3:---------------0---------0------------
2:----------1---------------------------
1:--------------------------------------

--------------------------------------
-----2--------------------------------
---------0---------------0------------
------------------0-----------0-------
-------------3------------------------
--------------------------------------

6:--------------------------------------
5:----3---------------------------------
4:--------2------------2----------------
3:----------------0---------0-----------
2:------------3-------------------------
1:--------------------------------------

I hope this helps a little bit, it's only the beginning but
that's all I've got so far. May be I'll get the rest
and update you later. After you play all bars you repeat them in
order again. Good LUCK!

Re: Faith Hill

: Do you have any more of the song? Thanks

: A7
: 6:--------------------------------------
: 5:--0-----------------------------------
: 4:------2-------------2-----------------
: 3:---------------0---------0------------
: 2:----------1---------------------------
: 1:--------------------------------------

:
: --------------------------------------
: -----2--------------------------------
: ---------0---------------0------------
: ------------------0-----------0-------
: -------------3------------------------
: --------------------------------------

:
: 6:--------------------------------------
: 5:----3---------------------------------
: 4:--------2------------2----------------
: 3:----------------0---------0-----------
: 2:------------3-------------------------
: 1:--------------------------------------

:
: I hope this helps a little bit, it's only the beginning but
: that's all I've got so far. May be I'll get the rest
: and update you later. After you play all bars you repeat them in
: order again. Good LUCK!

Re: Faith Hill

: : Do you have any more of the song? I'm at corndog192@yahoo.com. Thanks!

: : A7
: : 6:--------------------------------------
: : 5:--0-----------------------------------
: : 4:------2-------------2-----------------
: : 3:---------------0---------0------------
: : 2:----------1---------------------------
: : 1:--------------------------------------

: :
: : --------------------------------------
: : -----2--------------------------------
: : ---------0---------------0------------
: : ------------------0-----------0-------
: : -------------3------------------------
: : --------------------------------------

: :
: : 6:--------------------------------------
: : 5:----3---------------------------------
: : 4:--------2------------2----------------
: : 3:----------------0---------0-----------
: : 2:------------3-------------------------
: : 1:--------------------------------------

: :
: : I hope this helps a little bit, it's only the beginning but
: : that's all I've got so far. May be I'll get the rest
: : and update you later. After you play all bars you repeat them in
: : order again. Good LUCK!

Re: Faith Hill

is it rest of breathe tabs if it is send me an email and all send it to you.
Victor Silva

Chillowak, April Wine

Need Chillowack's: Fly by Night
Need April Wine's: Could have been a lady

Post new comment

The content of this field is kept private and will not be shown publicly.
CAPTCHA
This question is for testing whether you are a human visitor and to prevent automated spam submissions. Do not include any spaces in your answer.
Image CAPTCHA
Copy the characters (respecting upper/lower case) from the image.

Contact | Advertise | Contents | Privacy Policy | Forum

This site is published by Hitsquad Pty Ltd. Copyright © 1999 - 2017 , All Rights Reserved.