Tab Lagu Mungkin Nanti by peter pan [chord + solo]

Advertisement
Posted by ashes on Mon, 04/11/05 - 21:22:46.

Mungkin nanti by peter pan

--------------------------CHORD----------------------------

A C#m
Saatnya tuk berkata
D A
Mungkin yang terakhir kalinya
A C#m
Sudahlah lepaskan semua
D A
Kuyakin inilah waktunya

Em D
Chorus : Mungkin saja kau bukan yang dulu lagi
Em D
Mungkin saja rasa itu telah pergi..

A
Reff : Dan mungkin bila nanti
C#m
Kita kan bertemu lagi
D
Satu pintaku jangan
Em A
Kau coba tanyakan kembali
C#m
Rasa yang ku tinggal mati
D
Seperti hari kemarin
Em
Saat semua disini......

INTRO : A-C#m-D-Em

A C#m
Dan bila hatimu terbangun
D A
Bangun dari mimpi-mimpimu
A C#m
Membuka hatimu yg dulu
D A
Cerita saat bersamaku

back to chorus
back to reff 1x

A
Tak usah kau tanyakan lagi
C#m
Simpan untuk sendiri
D
Semua sesal yang kau cari
Em
Semua rasa yang kau beri......

INTRO : A-C#m-D-Em

--------------------------SOLO-----------------------------

e|---------------------------------------------------------
B|-------------------14--12--------------------------------
G|------9------------------14------------------11-11h13-11-
D|-9h11--9-11--12/14-----------14-14--14-11-14-------------
A|---------------------------------------------------------
E|---------------------------------------------------------

e|------------------------------------|
B|------------------------------------|
G|------------------------------------|
D|14-14-14--12/11--9--11--------------|
A|-----------------------12-----------|
E|------------------------------------|

e|-12-12-10-9----9---------------------------12-12-12--12-
B|-------------12--10------10-12/14--12-10-12--------------
G|---------------------9h11--------------------------------
D|---------------------------------------------------------
A|---------------------------------------------------------
E|---------------------------------------------------------

e|-12-12--12-14-16-17-19-17--16-17-|
B|---------------------------------|
G|---------------------------------|
D|---------------------------------|
A|---------------------------------|
E|---------------------------------|

h = hammer
/ = slide up to

Follow it slowly while listening to the music, U'll get used to it

Comment viewing options

Select your preferred way to display the comments and click "Save settings" to activate your changes.

Re: Tab Lagu tak bisakah by peter pan

i want the kord for tak bisakah by peter pan

Post new comment

The content of this field is kept private and will not be shown publicly.
CAPTCHA
This question is for testing whether you are a human visitor and to prevent automated spam submissions. Do not include any spaces in your answer.
Image CAPTCHA
Copy the characters (respecting upper/lower case) from the image.

Contact | Advertise | Contents | Privacy Policy

This site is published by Hitsquad Pty Ltd. Copyright © 1999 - 2014 , All Rights Reserved.