Sweet Tabs

Sweet Tabs

ALL THE TABS YOU COULD EVER WANT. TABS WITH SOUND TOO.

Sweet Tabs
All the tabs you could ever want. Tabs with sound too.

Comment viewing options

Select your preferred way to display the comments and click "Save settings" to activate your changes.

tabs needed

somebody send me Hells Bells tab, and other tab by AC/DC, lynyrd skynyrd, metalica, led zep and the who

tabs for nudity

if someone send me tabs for m2m (why, mirror mirror)
i will reply with self nudes.
i'm 17/f, u'll like

Re: tabs for nudity

: if someone send me tabs for m2m (why, mirror mirror)
: i will reply with self nudes.
: i'm 17/f, u'll like

Re: tabs for nudity

I am from melbourne australia. I would love to see your self nudes. I would be eternally gratef

Jil Phillips Need tab

Need tab for Live By The Sword

Guitar boogie

I WOnder if anybody have the tab to the guitar boogie of Arthur Smith and his crackerjaks or the ventures????(mail it to me if if you have it)

Re: Guitar boogie

: I WOnder if anybody have the tab to the guitar boogie of Arthur Smith and his crackerjaks or the ventures????(mail it to me if if you have it)I have the origional sheet music for Arthur Smith's Guitar Boogie. It has regular musical notes with fret and string numbers (not realy tab). I bought the sheet music about 1959. I ALSO LOOKED AT A BOOK OF VENTURE TAB just last firday 10-20-2000 at a music store in Kansas City, Missouri. Do you have a recording of Guitar Boogie?

Re: Guitar boogie

: : I WOnder if anybody have the tab to the guitar boogie of Arthur Smith and his crackerjaks or the ventures????(mail it to me if if you have it)I have the origional sheet music for Arthur Smith's Guitar Boogie. It has regular musical notes with fret and string numbers (not realy tab). I bought the sheet music about 1959. I ALSO LOOKED AT A BOOK OF VENTURE TAB just last firday 10-20-2000 at a music store in Kansas City, Missouri. Do you have a recording of Guitar Boogie?

Re: Guitar boogie

: : : I WOnder if anybody have the tab to the guitar boogie of Arthur Smith and his crackerjaks or the ventures????(mail it to me if if you have it)I have the origional sheet music for Arthur Smith's Guitar Boogie. It has regular musical notes with fret and string numbers (not realy tab). I bought the sheet music about 1959. I ALSO LOOKED AT A BOOK OF VENTURE TAB just last firday 10-20-2000 at a music store in Kansas City, Missouri. Do you have a recording of Guitar Boogie?

I would really like to get my hands on any information on this subject. Please email me as I am new to the web.

regards
Dallas

Re: Guitar boogie

: : I WOnder if anybody have the tab to the guitar boogie of Arthur Smith and his crackerjaks or the ventures????(mail it to me if if you have it)I have the origional sheet music for Arthur Smith's Guitar Boogie. It has regular musical notes with fret and string numbers (not realy tab). I bought the sheet music about 1959. I ALSO LOOKED AT A BOOK OF VENTURE TAB just last firday 10-20-2000 at a music store in Kansas City, Missouri. Do you have a recording of Guitar Boogie?

Gary

You download the original Guitar Boogie off Napster. There are also many other songs there by Arthur Smith. Being a guitarist, I wouldn't mind getting a copy of the sheet music that you have. I can play Guitar Boogie, but it just aint the same as he played it! Sorry, I can't help you with the tableture. Brian

please

please i need survivor eye of the tiger please!!

Re: please

i just found it 20 seconds after i replied. http://www.realguitartabs.com/eye.html
your welcome

Re: please

I've been looking for it everywhere. i cant find it, if i do, ill get it to you

3 doors down "kryptonite" and live "lightning crashes"

i need Live"lightning crashes" and 3 doors down "Kryptonite"
can any one send them to me?

Re: 3 doors down "kryptonite" and live "lightning crashes"

: i need Live"lightning crashes" and 3 doors down "Kryptonite"
: can any one send them to me?

All that the song is bar chords, from first to third to fifth and to first (frets that is...L) that may not be exactly the right frets but listen to the song, that's all it is...bar chords

Re: 3 doors down

: : i need Live"lightning crashes" and 3 doors down "Kryptonite"
: : can any one send them to me?

: All that the song is bar chords, from first to third to fifth and to first (frets that is...L) that may not be exactly the right frets but listen to the song, that's all it is...bar chords

:yo um u now how kryptonite has drums wats the beat 4 them i need2 no now plz

Re: 3 doors down

There are 3 basic chords that I know of and they are bar chords. in order they are F ( e shaped bar chord on first fret), C ( a shaped bar chord in 3rd fret) and G (E shaped bar chord on 3rd fret) These are correct as i have played them with the CD

good luck

Re: 3 doors down

: i need Live"lightning crashes" and 3 doors down "Kryptonite"
: can any one send them to me?

go to www.getinyourcrib.com

you can see all the songs you can think of there

Re: 3 doors down "kryptonite" and live "lightning crashes"

: i need Live"lightning crashes" and 3 doors down "Kryptonite"
: can any one send them to me?

ya, you need to check out Sweet Tabs again, because I have put a full tab of kryptonite - complete with sound - up...Its in the tabs w/ sound part however. So check it out!

http://www.geocities.com/flyguy3472

Re: Lightning Crashes

: : i need Live"lightning crashes" and 3 doors down "Kryptonite"
: : can any one send them to me?

: ya, you need to check out Sweet Tabs again, because I have put a full tab of kryptonite - complete with sound - up...Its in the tabs w/ sound part however. So check it out!

: http://www.geocities.com/flyguy3472

Re: Lightning Crashes

: : : i need Live"lightning crashes" and 3 doors down "Kryptonite"
: : : can any one send them to me?

: : ya, you need to check out Sweet Tabs again, because I have put a full tab of kryptonite - complete with sound - up...Its in the tabs w/ sound part however. So check it out!

: : http://www.geocities.com/flyguy3472

i need them more than u

Re: 3 doors down "kryptonite" and live "lightning crashes"

: i need Live"lightning crashes" and 3 doors down "Kryptonite"
: can any one send them to me? the tab sheet's please!

Re: 3 doors down "kryptonite" and live "lightning crashes"

: : 3 doors down "Kryptonite"
: : can you send them to me? the tab sheet's please!

goldfinger tabs

i really need to find some gutair tabs for goldfinger's cover of nena's "99 red ballons"...it would be really kul if someone could help me out.

If Only Tabs

I really need the tabs for "If Only". I would really appreciate it. Thanks

Re: goldfinger tabs

hey, i would be pleased if i could get some Goldfinger tabs from the Stomping Ground album preferibly, such as san simeon, carry on, im down, forgiveness, etc.. thanks!

Re: goldfinger tabs

: i really need to find some gutair tabs for goldfinger's cover of nena's "99 red ballons"...it would be really kul if someone could help me out.

Re: goldfinger tabs

that song kicks ass.here you go. BASS TAB for 99 redballoons

Standard Tuning (E,A,D,G)

Intro
G|-----------------------------------------------------------------|
D|-2-2-2-2-2-2-2-2-2-2-2-2-2-2-2-2---------------------------------|
A|---------------------------------4-4-4-4-4-4-4-4-4-4-4-4-4-4-4-4-|
E|-----------------------------------------------------------------|

G|-----------------------------------------------------------------|
D|-----------------------------------------------------------------|
A|-0-0-0-0-0-0-0-0-0-0-0-0-0-0-0-0-2-2-2-2-2-2-2-2-2-2-2-2-2-2-2-2-|
E|-----------------------------------------------------------------|
x3
G|-----------------------------------------------------------------|
D|-2-2-2-2-2-2-2-2-------------------------------------------------|
A|-----------------4-4-4-4-4-4-4-4-0-0-0-0-0-0-0-0-2-2-2-2-2-2-2-2-|
E|-----------------------------------------------------------------|

G|--------------------------------------------------------|
D|-2-2-2-2-2-2-2-2----------------------------------------|
A|-----------------4-4-4-4-4-4-4-4-0-0-0-0-0-0-0-0-2*-R---|
E|--------------------------------------------------------|

BridgeG|---------------------------------------|
D|---------------------------------------|
A|-7\-R---------7\-R---------7\-R--------|
E|---------------------------------------|

Pre-Verse
G|---------------------------------------|
D|-2-2---2---4h6p4-2---2-2---2-----------|
A|-----4---4---------4-----4---4-2-2-2h4-|
E|---------------------------------------|

G|-------------------------------------------|
D|-2-2---2---4h6p4-2---2-2---2---------------|
A|-----4---4---------4-----4---4-2-x-x-2-x-x-|
E|-------------------------------------------|

G|-------------------------------------|
D|-2---2---4h6p4-2---2-2---2-----------|
A|---4---4---------4-----4---4-2-2-2h4-|
E|-------------------------------------|

G|-----------------------------------------------|
D|-2-2---2---4h6p4-2---2-2---2-------------------|
A|-----4---4---------4-----4---4-2-2-2-2-2-2-2-4-|
E|-----------------------------------------------|

Verse
G|-----------------------------------------------------------------|
D|-----------------------------------------------------------------|
A|-------------------------------------------------2-2-2-2-2-2-2-2-|
E|-0-0-0-0-0-0-0-0-2-2-2-2-2-2-2-2-5-5-5-5-5-5-5-5-----------------|

Chorus
G|-----------------------------------------|
D|-----------------------------------------|
A|-----------------------0-2-2-2-2-2-2-2-2-|
E|-0-0---0-2-2---2-5-5---------------------|

G|---------------------------------------------------------------|
D|------------------------------------------------------------2*-|
A|-------------------------------------------------2-2-2--2-4----|
E|-0-0-0-0-0-0-0-0-2-2-2-2-2-2-2-2-5-5-5-5-5-5-5-5---------------|

End
G|--------------------------------------------------------------|
D|------------------------------------------------------------2-|
A|-------------------------------------------------2-2-2--2-4---|
E|-0-0-0-0-0-0-0-0-2-2-2-2-2-2-2-2-5-5-5-5-5-5-5-5--------------|

Outro x2
G|------------------------------| |---------------------|
D|------------------------------| |---------------------|
A|-------------------------2*---| |----------------2*---|
E|-R------2-0*---2*---5*--------| |-0*---2*---5*--------|

Re: goldfinger tabs

i really want the music for mable could someone please help me this is a LIFE OR DEATH SITUATION

Re: goldfinger tabs

I really neeeeeed the guitar tabs for superman, thx

Re: goldfinger tabs

I really neeeeeed the guitar tabs for superman, thx

Re: goldfinger tabs

: i really need to find some gutair tabs for goldfinger's cover of nena's "99 red ballons"...it would be really kul if someone could help me out.

Re: goldfinger tabs

:
: : i really need to find some gutair tabs for goldfinger's cover of nena's "99 red ballons"...it would be really kul if someone could help me out. I need superman´s solo. i can´t
find it anyway. i will thank you.

Re: goldfinger tabs

hey ppl, i need some BASS TABS for "99 Red Balloons". it's a phat song but i can't find the tabs anywhere. thanx!!

Re: goldfinger tabs

I agree it's a phat song so I did a little looking and here you go.
BASS TAB for 99 redballoons

Standard Tuning (E,A,D,G)

Intro
G|-----------------------------------------------------------------|
D|-2-2-2-2-2-2-2-2-2-2-2-2-2-2-2-2---------------------------------|
A|---------------------------------4-4-4-4-4-4-4-4-4-4-4-4-4-4-4-4-|
E|-----------------------------------------------------------------|

G|-----------------------------------------------------------------|
D|-----------------------------------------------------------------|
A|-0-0-0-0-0-0-0-0-0-0-0-0-0-0-0-0-2-2-2-2-2-2-2-2-2-2-2-2-2-2-2-2-|
E|-----------------------------------------------------------------|
x3
G|-----------------------------------------------------------------|
D|-2-2-2-2-2-2-2-2-------------------------------------------------|
A|-----------------4-4-4-4-4-4-4-4-0-0-0-0-0-0-0-0-2-2-2-2-2-2-2-2-|
E|-----------------------------------------------------------------|

G|--------------------------------------------------------|
D|-2-2-2-2-2-2-2-2----------------------------------------|
A|-----------------4-4-4-4-4-4-4-4-0-0-0-0-0-0-0-0-2*-R---|
E|--------------------------------------------------------|

BridgeG|---------------------------------------|
D|---------------------------------------|
A|-7\-R---------7\-R---------7\-R--------|
E|---------------------------------------|

Pre-Verse
G|---------------------------------------|
D|-2-2---2---4h6p4-2---2-2---2-----------|
A|-----4---4---------4-----4---4-2-2-2h4-|
E|---------------------------------------|

G|-------------------------------------------|
D|-2-2---2---4h6p4-2---2-2---2---------------|
A|-----4---4---------4-----4---4-2-x-x-2-x-x-|
E|-------------------------------------------|

G|-------------------------------------|
D|-2---2---4h6p4-2---2-2---2-----------|
A|---4---4---------4-----4---4-2-2-2h4-|
E|-------------------------------------|

G|-----------------------------------------------|
D|-2-2---2---4h6p4-2---2-2---2-------------------|
A|-----4---4---------4-----4---4-2-2-2-2-2-2-2-4-|
E|-----------------------------------------------|

Verse
G|-----------------------------------------------------------------|
D|-----------------------------------------------------------------|
A|-------------------------------------------------2-2-2-2-2-2-2-2-|
E|-0-0-0-0-0-0-0-0-2-2-2-2-2-2-2-2-5-5-5-5-5-5-5-5-----------------|

Chorus
G|-----------------------------------------|
D|-----------------------------------------|
A|-----------------------0-2-2-2-2-2-2-2-2-|
E|-0-0---0-2-2---2-5-5---------------------|

G|---------------------------------------------------------------|
D|------------------------------------------------------------2*-|
A|-------------------------------------------------2-2-2--2-4----|
E|-0-0-0-0-0-0-0-0-2-2-2-2-2-2-2-2-5-5-5-5-5-5-5-5---------------|

End
G|--------------------------------------------------------------|
D|------------------------------------------------------------2-|
A|-------------------------------------------------2-2-2--2-4---|
E|-0-0-0-0-0-0-0-0-2-2-2-2-2-2-2-2-5-5-5-5-5-5-5-5--------------|

Outro x2
G|------------------------------| |---------------------|
D|------------------------------| |---------------------|
A|-------------------------2*---| |----------------2*---|
E|-R------2-0*---2*---5*--------| |-0*---2*---5*--------|

Re: goldfinger tabs

:
: : i really need to find some gutair tabs for goldfinger's cover of nena's "99 red ballons"...it would be really kul if someone could help me out.

yo yo yo! :)

Re: goldfinger tabs

And help I will here you go friend.BASS TAB for 99 redballoons

Standard Tuning (E,A,D,G)

Intro
G|-----------------------------------------------------------------|
D|-2-2-2-2-2-2-2-2-2-2-2-2-2-2-2-2---------------------------------|
A|---------------------------------4-4-4-4-4-4-4-4-4-4-4-4-4-4-4-4-|
E|-----------------------------------------------------------------|

G|-----------------------------------------------------------------|
D|-----------------------------------------------------------------|
A|-0-0-0-0-0-0-0-0-0-0-0-0-0-0-0-0-2-2-2-2-2-2-2-2-2-2-2-2-2-2-2-2-|
E|-----------------------------------------------------------------|
x3
G|-----------------------------------------------------------------|
D|-2-2-2-2-2-2-2-2-------------------------------------------------|
A|-----------------4-4-4-4-4-4-4-4-0-0-0-0-0-0-0-0-2-2-2-2-2-2-2-2-|
E|-----------------------------------------------------------------|

G|--------------------------------------------------------|
D|-2-2-2-2-2-2-2-2----------------------------------------|
A|-----------------4-4-4-4-4-4-4-4-0-0-0-0-0-0-0-0-2*-R---|
E|--------------------------------------------------------|

BridgeG|---------------------------------------|
D|---------------------------------------|
A|-7\-R---------7\-R---------7\-R--------|
E|---------------------------------------|

Pre-Verse
G|---------------------------------------|
D|-2-2---2---4h6p4-2---2-2---2-----------|
A|-----4---4---------4-----4---4-2-2-2h4-|
E|---------------------------------------|

G|-------------------------------------------|
D|-2-2---2---4h6p4-2---2-2---2---------------|
A|-----4---4---------4-----4---4-2-x-x-2-x-x-|
E|-------------------------------------------|

G|-------------------------------------|
D|-2---2---4h6p4-2---2-2---2-----------|
A|---4---4---------4-----4---4-2-2-2h4-|
E|-------------------------------------|

G|-----------------------------------------------|
D|-2-2---2---4h6p4-2---2-2---2-------------------|
A|-----4---4---------4-----4---4-2-2-2-2-2-2-2-4-|
E|-----------------------------------------------|

Verse
G|-----------------------------------------------------------------|
D|-----------------------------------------------------------------|
A|-------------------------------------------------2-2-2-2-2-2-2-2-|
E|-0-0-0-0-0-0-0-0-2-2-2-2-2-2-2-2-5-5-5-5-5-5-5-5-----------------|

Chorus
G|-----------------------------------------|
D|-----------------------------------------|
A|-----------------------0-2-2-2-2-2-2-2-2-|
E|-0-0---0-2-2---2-5-5---------------------|

G|---------------------------------------------------------------|
D|------------------------------------------------------------2*-|
A|-------------------------------------------------2-2-2--2-4----|
E|-0-0-0-0-0-0-0-0-2-2-2-2-2-2-2-2-5-5-5-5-5-5-5-5---------------|

End
G|--------------------------------------------------------------|
D|------------------------------------------------------------2-|
A|-------------------------------------------------2-2-2--2-4---|
E|-0-0-0-0-0-0-0-0-2-2-2-2-2-2-2-2-5-5-5-5-5-5-5-5--------------|

Outro x2
G|------------------------------| |---------------------|
D|------------------------------| |---------------------|
A|-------------------------2*---| |----------------2*---|
E|-R------2-0*---2*---5*--------| |-0*---2*---5*--------|

guitar tabs

Hi... i would like to have Nine Days - Absolutely(story of a girl) tabs or chords... I just can't find it on the net!!!
so if enyone have it, please send it to me!

thanks!!

i need guitar tabs for suitee pee by system of a down

i need guitar tabs for suitee pee by system of a down

fagot boys go away

fagots, u suck jibblets

Re: i need guitar tabs for suitee pee by system of a down

: i need guitar tabs for suitee pee by system of a down

Re: i need guitar tabs for suitee pee by system of a down ---> Chop Suey!

: : i need guitar tabs for suitee pee by system of a down ---> Chop suey

supergrass

can anyone help me
i'm looking for guitar tab for supergrass's "moovin"

supergrass

can anyone help me
i'm looking for guitar tab for supergrass's "moovin"

guitar tablature about lates hard core song

I need some help with this! i need to fine all of the guitar tablature for my scholarship,research,
it just that, i dont have somany time. It about korn (issues) all song+bass guitar tab just that only and my guitar only has
20 frets if the note tab is more than my guitar frets pleast help me by modyfite the note thans.
With this guitar tab i could post some of these in return if someone helps me with this.

Emil add.... faheng@88hiphop.com

need help:
fais ,from malaysia

Re: guitar tablature about lates hard core song

: I need some help with this! i need to fine all of the guitar tablature for my scholarship,research,
: it just that, i dont have somany time. It about korn (issues) all song+bass guitar tab just that only and my guitar only has
: 20 frets if the note tab is more than my guitar frets pleast help me by modyfite the note thans.
: With this guitar tab i could post some of these in return if someone helps me with this.

: Emil add.... faheng@88hiphop.com

: need help:
: fais ,from malaysia

Re: guitar tablature about lates hard core song

: : I need some help with this! i need to fine all of the guitar tablature for my scholarship,research,
: : it just that, i dont have somany time. It about korn (issues) all song+bass guitar tab just that only and my guitar only has
: : 20 frets if the note tab is more than my guitar frets pleast help me by modyfite the note thans.
: : With this guitar tab i could post some of these in return if someone helps me with this.

: : Emil add.... faheng@88hiphop.com

:
: : need help:
: : fais ,from malaysia

Re: guitar tablature about lates hard core song

: : : I need some help with this! i need to fine all of the guitar tablature for my scholarship,research,
: : : it just that, i dont have somany time. It about korn (issues) all song+bass guitar tab just that only and my guitar only has
: : : 20 frets if the note tab is more than my guitar frets pleast help me by modyfite the note thans.
: : : With this guitar tab i could post some of these in return if someone helps me with this.

: : : Emil add.... faheng@88hiphop.com

: :
: : : need help:
: : : fais ,from malaysia

Hey buddy, the only way i can help you with this is if the notes that are above the 20th fret are on the 2nd-to sixth string. For instance if a note is one the 22nd fret on the 2nd string, you can play it on the 17th fret on the 1st string. But if its on the 1st string, then the only you way you could play that note (22nd fret) would be either to pre-bend your 20th fret a step, to give you the pitch of the note on the 22nd fret, or to tune your high e string up a whole step, most likely causing you to break it....so the pre bend idea would be best if your gonna use your guitar. But probably the best thing for you to do is to get a guitar with 22 or more frets.

guitar tablature about lates hard core song

I need some help with this! i need to fine all of the guitar tablature for my scholarship,research,
it just that, i dont have somany time. It about korn (issues) all song+bass guitar tab just that only and my guitar only has
20 frets if the note tab is more than my guitar frets pleast help me by modyfite the note thans.
With this guitar tab i could post some of these in return if someone helps me with this.

Incubus

ANY INCUBUS TABS WOULD BE GREAT HELP

Post new comment

The content of this field is kept private and will not be shown publicly.
CAPTCHA
This question is for testing whether you are a human visitor and to prevent automated spam submissions. Do not include any spaces in your answer.
Image CAPTCHA
Copy the characters (respecting upper/lower case) from the image.

Contact | Contents | Privacy Policy | Forum

This site is published by Hitsquad Pty Ltd. Copyright © 1999 - 2017 , All Rights Reserved.