Tab Seek

Tab Seek

Huge Tab Archive + Newest Tabs

Over 1000 guitar tabs, both new and classic. We get the newest tabss before any other site. If your looking for a tab to a new song that no one else has, chances are we will have it. Some of the artists on our site include Fenix Tx, Incubus, Slipnot, Deftones, 3 Doors Down, Stroke 9, Limp Bizkit and many more.



Comment viewing options

Select your preferred way to display the comments and click "Save settings" to activate your changes.

Re: Ani Difranco - Untouchable Face tabs

: If anyone has the tabs for Untouchable Face I will love them forever!

If you posted this without checking OLGA.net...Buy a shirt. :)

http://www.olga.net/dynamic/browse.php?printer=0&local=main/d/difranco_ani/untouchable_face.tab

-Cam

Incubus..Driver tabs

i need these!!!!!!!!!

my one and only love guitar or piano tabs

does anyone have the guitar or piano tab for "my one and only love"?.(sting-leaving las vegas original sountrack)
Thanks.

Re: my one and only love guitar or piano tabs

The song is originally by frank sinatra and you can find the tabs of that here:
http://www.allcountrytabs.com/tabs/frank-sinatra/my-one-and-only-love-10030.html

I have been looking for it forever as well until i realised it wasn't originally by sting!

Re: my one and only love guitar or piano tabs

I am looking for the tab also. Thanks

Tickets for Slipnot!!!!!!!!!!!!!!

Does slipnot coming to göteborg 2002?? i realy whant to know, or are they comming to Stockholm/sweden!??????

And can u give me tickets for it??

slipknot everything ends bass tab

i am looking for everything ends bass tab but cant find it anywhere!!!
if someone can help me that would be awsome

Fenix Tx

If anyone knows the guitar solo in "Surf Song" by fenix *tx, please please please e-mail it to me! Thank you soo much!

Re: Fenix Tx

yea if any1 can find tabs to el borracho i'd b so happy

Re: Fenix Tx

: yea if any1 can find tabs to el borracho i'd b so happy

i want complete El Borracho Bass Tabs.. i need them!!! pls, somone must know!

racer x

need Racer X Technical Difficulties tab...

racer x

Hi, I'm from chile, my english it isn't good, so I hope you can understand me
I'm really apreciate if you can send me the Racer X Technical Difficulties tab
baceause I've already play it, but I discovered by myself
and I'm not sure if I play it good

thanks

racer x

need Racer x Technical Difficulties tab...

Mother Fucker

Spread the Sickness mother fukers!!!!!!!!!!!!!!!!!!!!!!!!!!!!!!!!!

Coldplay Tab

I realllllyy need the acoustic tab for 'shiver' It has to be out there somewhere. I know it. I know that there are two versions, but I don't want a version with the electric lead. There has to be an acoustic tab. If someone could find this, it would really help me out. Thanks :)

Diane

Re: Coldplay Tab

: I realllllyy need the acoustic tab for 'amsterdam' It has to be out there somewhere. I know it. I know that there are two versions, but I don't want a version with the electric lead. There has to be an acoustic tab. If someone could find this, it would really help me out. Thanks :)

: Louise

EPONTIGO

: I realllllyy need the acoustic tab for 'shiver' It has to be out there somewhere. I know it. I know that there are two versions, but I don't want a version with the electric lead. There has to be an acoustic tab. If someone could find this, it would really help me out. Thanks :)

: Diane

Incubus song "Mexico"

Hey. In my extensive tab search I've found that guitar tabs sites SUCK!!! If anyone knows where I could find tabs for the Incubus song "Mexico" it would be greatly appreciated. It's on their new cd Morning View, track 7. Great acoustic song, and was awesome live as well. Someone help me out.

mexico by the ventures

: Hey. In my extensive tab search I've found that guitar tabs sites SUCK!!! If anyone knows where I could find tabs for the Incubus song "Mexico" it would be greatly appreciated. It's on their new cd Morning View, track 7. Great acoustic song, and was awesome live as well. Someone help me out.

Re: Incubus song "Mexico"

Mexico rocks, I've been searching constantly for a good tab for it, and I found a few good ones at tabcrawler.com and ultimate-guitar.com. They have pretty damn good tabs, so be sure to check that out for the Mexico tab.

Guitar tabs needed

hey i really need tabs to (HED) PE "waiting to die" and "My Plague" By Slipknot................thanX email me if you have them...and tell me the subject of the email cause i dont want some sand nigger givving me a virus
late§

Re: Guitar tabs needed

: hey i really need tabs to (HED) PE "waiting to die" ill the infinity , five pointe o..........
thanX email me if you have them...and tell me the subject of the email cause i dont want some sand nigger givving me a virus
: late¨¬

Re: Guitar tabs needed

: hey i really need tabs to (HED) PE "waiting to die" ill nino: what comes around..........
thanX email me if you have them...and tell me the subject of the email cause i dont want some sand nigger givving me a virus
: late¨¬

Re: Guitar tabs needed

: hey i really need tabs to (HED) PE "waiting to die" adema : everyone................thanX email me if you have them...and tell me the subject of the email cause i dont want some sand nigger givving me a virus
: late¨¬

Tablature

i need a tab of a "Cult"'s song "Sun King"

need information & tabs

ineed tabs slipknot,limp bizkit,RATM.please

I need "kick some ass" tabs by stroke 9

Hey, E-Mail me if u got any tabs for stroke 9's Kick some ass

tabs

i know the tab for three doors down:kryptonite

tabs

i know the tab for three doors down:kryptonite

crystal

i know the tab for three doors down:kryptonite

I NEED RAINBOW TABS!

I WOULD BE VERY BLEASEND IF YOU COULD SEND ME SOME RAINDOW TABULATURES FORE GUITAR LIKE "KILL THE KING", "MAN ON THE SILVER MOUNTAIN",
"STARSTRUCK" AND "GATES OF BABYLON"

Re: I NEED RAINBOW TABS!

: I WOULD BE VERY BLEASEND IF YOU COULD SEND ME SOME RAINDOW TABULATURES FORE GUITAR LIKE "KILL THE KING", "MAN ON THE SILVER MOUNTAIN",
: "STARSTRUCK" AND "GATES OF BABYLON"

Thank You!

I need guitar tabs for 3 Doors Down, Limp Bizkit, Slipknot, Linkin Park, and Blink 182 asap!!!!!!!

3 Doors Down, Limp Bizkit, Slipknot, Linkin Park, and Blink 182 asap please for our band!!!!!

Re: I need guitar tabs for 3 Doors Down, Limp Bizkit, Slipknot, Linkin Park, and Blink 182 asap!!!!!

ive got sum blink tabs.i'll snd you an e-mail(need adress)

i need re d hot chilli pepper tabs

if any one know the tabs to calllifornication' aero plane or under the bridge email me

Found it for ya !!! (aeroplane)

##### Guitar Tabs Red Hot Chili Peppers Tabs Aeroplane Tab
##### Find: Red Hot Chili Peppers Sheet Music or Red Hot Chili Peppers Lyrics
### Downloaded: 26/01/02 15:01 - PST
#----------------------------------PLEASE NOTE----------------------------------#
# This file is the author's own work and represents their interpretation of the #
# song. You may only use this file for private study, scholarship, or research. #
#-------------------------------------------------------------------------------#
#

From solomon.white@math.enmu.edu Wed Apr 10 23:50:13 1996
Received: from post-office.nevada.edu (post-office.nevada.edu [131.216.1.11]) by mailhost.tcs.tulane.edu (8.6.12/8.5) with ESMTP id SAA43112; Wed, 10 Apr 1996 18:50:08 -0500
Received: from walnut.enmu.edu (WALNUT.ENMU.EDU [198.59.108.167]) by post-office.nevada.edu (8.6.12/8.6.4) with SMTP id QAA14314 for ; Wed, 10 Apr 1996 16:48:09 -0700
Message-Id: <199604102348.QAA14314@post-office.nevada.edu>
Received: from TSEHA13.ENMU.EDU by walnut.enmu.edu with SMTP
(1.37.109.8/16.2) id AA26988; Wed, 10 Apr 1996 17:48:27 -0600
Date: Wed, 10 Apr 1996 17:48:27 -0600
X-Sender: whitesol@walnut.enmu.edu
X-Mailer: Windows Eudora Light Version 1.5.2
Mime-Version: 1.0
Content-Type: text/plain; charset="us-ascii"
To: guitar@nevada.edu
From: "Solomon J. White"
Subject: TAB: Aeroplane by The Red Hot Chili Peppers
X-email-warning: As a cautionary note, there have been recent instances of
people forging mail addresses. If you have any reason to believe
this message is not authentic, please contact the listed sender or
System Computing Services at (702) 895-4585.
Status: RO

AEROPLANE
by the Red Hot Chili Peppers
Tablature by Solomon White (solomon.white@math.enmu.edu)

4-10-96
I worked this out yesterday--it's quite easy, actually.

Chorus part:

e--6--6--6--6--...----------6--6--6--6--...---------------
D--6--6--6--6--...----------5--5--5--5--...---------------
B--5--5--5--5--...----------5--5--5--5--...---------------
^ ^ ^ ^
I like pleasure... and music is my aeroplane.....

Verse part: (same chords, an octave higher.)
SM SM SM SM
e--18--18-18------18--18-18------18--18-18------18--18-18---
D--18--18-18------18--18-18------17--17-17------17--17-17---
B--17--17-17------17--17-17------17--17-17------17--17-17---
^ ^ ^ ^

The verse is more choppy or staccato, while the chorus is more smooth.
Listen to the CD for the correct rhythm. Now could a kind soul tab out
the solo? I'm working on it, but...

Solomon White
solomon.white@math.enmu.edu

NOTATION GUIDE:
SM -- slightly muted
-------------
-------------
-------------
^ -- up strum (high to low)

3 doors down-kryptonite

accoustic guitar tab

Re: 3 doors down-kryptonite

: accoustic guitar tab go here it has tab for this song for guita1 1 in the song and guitar 2 as well (accoustic) www.tabalorium.com

3 doors down-Song #5 (If I could be like that)

I just need the tabs for 3 doors down ( especially song #5 on the new cd) Thanks alot!

anti nowhere league tab

I would like to get my hands on a tab for Crime by Anti Nowhere League. Any help would be appreciated. Thanks.

Re: anti nowhere league tab

I have the same problem. I look for the bass and guitar tab of Woman by the anti nowhere league. Can you help me.

Stroke 9 tabs

Somebody please!!! I like Stroke 9 very much but the only tabs I can find are little black backpack, not their best song in my opinion. My favorite song is "Tail of the Sun." If someone has the tabs or could tab it for me, I would be eternally grateful if you'd send it to me. Thanks!!!

Tail of the Sun

Tail of the Sun
by Stroke 9

"Bare-Minimum" tablature by Eric Tranvinh (fookwanfoo@hotmail.com)

("Bare Minimum," just enought to get you by. Most of the little
strums, hammer-ons, and bends, have been omitted. This will just
be a guide to where your fingers should be (on the guitar neck).

Intro Riff:

E Amaj7 E B
---------------------------------------------------------------------
------------------------------------------------------------------0--
-9----x---9--11-s13---11h13--11-------x---11--9-------x--11---9---8--
-9----x---9--9--------11-----11---11--x---9---9---9---x--9----9---9--
-11---x---11-11-------12-----12---12--x---11------11--x--11---11--9--
------------------------------------------------------------------7--

Verse Riff:
---------------------------------------------------------------------
------------------------------------------------------------------0--
-9----x---9--11-s13---11h13--11-------x---11--9-------x--11---9---8--
-9----x---9--9--------11-----11---11--x---9---9---9---x--9----9---9--
-11---x---11-11-------12-----12---12--x---11------11--x--11---11--9--
-0----0---0--0----------------------------------------------------7--

Lead guitar (verse riff)
-----|---------------------12----------|-----------------------------
-----|---------------------------------|-----------------------------
--11-|--9------9--11-s13------------11-|--9-------11-----------------
-----|---------------------------------|---------------9-------------
-----|---------------------------------|-----------------------------
-----|---------------------------------|-----------------------------

Pre-chorus: Two chords in some kind strum pattern

E A
-0--------------0----------------------------------------------------
-0--------------2----------------------------------------------------
-1--------------2----------------------------------------------------
-2--------------2----------------------------------------------------
-2--------------0----------------------------------------------------
-0-------------------------------------------------------------------

Pre-chorus Lead Guitar

---------------------------------------------------------------------
---------------------------------------------------------------------
-9---11-------------(yes, that's about it, now repeat it)------------
---------------------------------------------------------------------
---------------------------------------------------------------------
---------------------------------------------------------------------

Chorus:

-0---0----0---0----0---------2------0---0----0---0----2----2---------
-3---3----3---3----3---------2------3---3----3---3----2----2---------
-2---2----2---2----2---------2------2---2----2---2----2----2---------
-0---0-------------0---------4------0---0-------------4----4---------
----------4---4----0--2--4---4---------------4---4----4----4---------
-----------------------------2------------------------2----2---------

=====================================================================

©2001 Quangjah

Re: Tail of the Sun

Wow. Since the output isn't in the ASCII form, the alignment is all messed up. Try copying it to wordpad.

Tail of the Sun

Tail of the Sun
by Stroke 9

"Bare-Minimum" tablature by Eric Tranvinh (fookwanfoo@hotmail.com)

("Bare Minimum," just enought to get you by. Most of the little
strums, hammer-ons, and bends, have been omitted. This will just
be a guide to where your fingers should be (on the guitar neck).

Intro Riff:

E Amaj7 E B
---------------------------------------------------------------------
------------------------------------------------------------------0--
-9----x---9--11-s13---11h13--11-------x---11--9-------x--11---9---8--
-9----x---9--9--------11-----11---11--x---9---9---9---x--9----9---9--
-11---x---11-11-------12-----12---12--x---11------11--x--11---11--9--
------------------------------------------------------------------7--

Verse Riff:
---------------------------------------------------------------------
------------------------------------------------------------------0--
-9----x---9--11-s13---11h13--11-------x---11--9-------x--11---9---8--
-9----x---9--9--------11-----11---11--x---9---9---9---x--9----9---9--
-11---x---11-11-------12-----12---12--x---11------11--x--11---11--9--
-0----0---0--0----------------------------------------------------7--

Lead guitar (verse riff)
-----|---------------------12----------|-----------------------------
-----|---------------------------------|-----------------------------
--11-|--9------9--11-s13------------11-|--9-------11-----------------
-----|---------------------------------|---------------9-------------
-----|---------------------------------|-----------------------------
-----|---------------------------------|-----------------------------

Pre-chorus: Two chords in some kind strum pattern

E A
-0--------------0----------------------------------------------------
-0--------------2----------------------------------------------------
-1--------------2----------------------------------------------------
-2--------------2----------------------------------------------------
-2--------------0----------------------------------------------------
-0-------------------------------------------------------------------

Pre-chorus Lead Guitar

---------------------------------------------------------------------
---------------------------------------------------------------------
-9---11-------------(yes, that's about it, now repeat it)------------
---------------------------------------------------------------------
---------------------------------------------------------------------
---------------------------------------------------------------------

Chorus:

-0---0----0---0----0---------2------0---0----0---0----2----2---------
-3---3----3---3----3---------2------3---3----3---3----2----2---------
-2---2----2---2----2---------2------2---2----2---2----2----2---------
-0---0-------------0---------4------0---0-------------4----4---------
----------4---4----0--2--4---4---------------4---4----4----4---------
-----------------------------2------------------------2----2---------

=====================================================================

©2001 Quangjah

Re: Tail of the Sun

Yo! fun...
i like it :)
John
<a href="http://www.toshain.com">painting</a>

Fenix TX

I need fenix TX and Slick Shoes Tabs

Re: Fenix TX

: I need fenix TX and Slick Shoes Tabs hurry up and get slick shoes tabs get .... once again if you dont then you suck otherwise whats the point of this website having tabs ... and ill bet you dont get it cause its a pretty hard song

Re: Fenix TX

: I need fenix TX, if you can get "your my angel"

Re: Fenix TX

: I need fenix Tx tabs, if you can get "your my angel"

Post new comment

The content of this field is kept private and will not be shown publicly.
CAPTCHA
This question is for testing whether you are a human visitor and to prevent automated spam submissions. Do not include any spaces in your answer.
Image CAPTCHA
Copy the characters (respecting upper/lower case) from the image.

Contact | Contents | Privacy Policy | Forum

This site is published by Hitsquad Pty Ltd. Copyright © 1999 - 2019 , All Rights Reserved.

Affiliate Notice: As an Amazon Associate we earn from qualifying purchases.