1000' guitar tabs

1000' guitar tabs

Rock guitar tabs

1000 guitar tabs of more than 100 groups or artists…

Comment viewing options

Select your preferred way to display the comments and click "Save settings" to activate your changes.

Re: cky guitar tabs

: : : i need some cky(camp kill yourself)guitar tabs, especially Disengage the simulator.

Re: cky guitar tabs

: : : : i need some Remebering Never guitar tabs, especially Big Jim's Mistake.

Re: cky guitar tabs

: : i need some cky(camp kill yourself)guitar tabs, especially the one 96 quite bitter beings.

Re: cky guitar tabs

PONT U GAY

Re: cky guitar tabs

i know. YOU QUEER

Re: cky guitar tabs

check www.getinyourcrib.com

Re: cky guitar tabs

: : i need some cky(camp kill yourself)guitar tabs, especially the one 96 quite bitter beings. Ya..that and..if you can...Sigillum Diaboli by H.I.M.... ok..thanx...C ya l8er
Sammy

Re: cky guitar tabs

: i need some cky(camp kill yourself)guitar tabs
i would like tabs for premisquise daughter. PS i cant spell

need tab joe satriani,CRY.....

pleaseeeee....................

L.A. Guns tab

Can someone please teel me where i can get tab for the cocked and loaded album.

L.A. Guns tab

Can someone please teel me where i can get tab for the cocked and loaded album.

tab

need statesboro blues tab by the allman bros not the rythum the 6th string part

I NEED A TAB

I am looking for a tab by a band called "The Best Of Bread" the song is IF...please help thanks

guitar tab

does any body have black sabath tab on lord of this world

guitar tab

does any body have black sabath tab on lord of this world

something to believe in of Poison

Hy, i wont to have a tablature of poison song something to believe in
Bonjour j'aimerais avoir les partition de something to believe in de Poison

Stay Together (Mr. Big)

If you have the guitar tablature, please send me! Thanks in advance!!

Re: Stay Together (Mr. Big)

: If you have the guitar tablature, please send me! Thanks in advance!!

Re: Stay Together (Mr. Big)

: : If you have the guitar bass tablature, please send me! Thanks in advance!!

hey

HEy

Mushroomhead Tabs!!!!!

Hey, if anyone knows how to play the song "solitarie/unraveling" by Mushroomhead that would be awsome if you could send me the tabs. Thanx, and later.

Re: Mushroomhead Tabs!!!!!

I know how to play it on bass if you want to know how email me at Anti_file@yahoo.com.

alex llyod n placebo

hi does ne 1 no where i can get complete guitar bass n drums 4 alex llyods 'lucky star' n the same 4 placebos'bruise pristine'
ne help will b very much appreciated as need them 4 sumthin important
thanks

tabs

any one know wehre i can get come kick tabs for system of the down

Re: tabs

: any one know wehre i can get come kick tabs for system of the down

go to http://www.guitaretabs.com/

Need Stryper and Msg tabs!

Im looking for tabs from stryper ,"lady","against the law","caught in the middle" ,"all for one", "shining star", "rock the hell out of you",Msg tabs needed:, "never ending nightmare", "save yourself" "anytime", and "when im gone". i have tabbed some of the parts from some of these, but i cant figure out certain parts, if any one has the tab or can help me tab one, please email me, and maybe i can help some one tab a song they want.Thx.

STATUS QUO

I NEED STATUS QUO TAB CAN ANYONE HELP?

Re: STATUS QUO

: I NEED STATUS QUO TAB CAN ANYONE HELP?
down down basstab and chords
strahli

Re: STATUS QUO

: I NEED STATUS QUO TAB CAN ANYONE HELP?
down down basstab and chords

Re: STATUS QUO

: I NEED STATUS QUO TAB CAN ANYONE HELP?

Song: Caroline

Tabbed by: Michael Acheson

Guitar 1:

e|-------------------|
b|-------------------|
g|-------------------|
D|-------------------|
A|-15-17-15-17-15-17-|
E|-13-13-13-13-13-13-| etc,etc.

This goes on for about eight or ten bars then:

Guitar 2:

e|-----------------|
b|-----------------|
g|---3-2---3-2-3-2-|
D|-3-----3---------|
A|-----------------|
E|-----------------|

The above times for then:

e|-----------------|
b|-----------------|
g|---3-1---3-1-3-1-|
D|-3-----3---------|
A|-----------------|
E|-----------------|

Then back to:

e|-----------------|
b|-----------------|
g|---3-2---3-2-3-2-|
D|-3-----3---------|
A|-----------------|
E|-----------------|

Then there's a little riff:

e|---------------------------------------------|
b|---------------------------------------------|
g|---3-2-3-5-3-2-1-0-0-0-0-0-1---3-2---3-2-3-2-|
D|-----------------------------3-----3---------|
A|---------------------------------------------|
E|---------------------------------------------|

down_down.tab

TABBED BY MARCUS LUBBOCK
STATUS QUO DOWN DOWN

H = B STRING!!!!!!!!!!!!!!!!!!!!!!!!!!!!!!!!!!!!!!!!!!!!!!11

To play the rhythm guitar to make it sound like
Francis plays it, I would prefer to tune the guitar like this:

(From the thickest string to the thinnest)
D-G-D-G-B-D and put a capo on the 4th fret. The number
I set for frets will be 0=4, 1=5, 2=6 etc... This means
that a 0 will be an open string play with the capo on the
4th fret, 1 will be the 5th fret if you didn't have the capo etc...

I'll show you here:

7. 6. 5. 4. 3. 2. 1. fret no. WITHOUT capo on
-----|-----|-----|-----|--#--|-----|-----|-----| D <-THICKEST string!!
-----|-----|-----|-----|--#--|-----|-----|-----| G
-----|-----|-----|-----|--#--|-----|-----|-----| D
-----|-----|-----|-----|--#--|-----|-----|-----| G
-----|-----|-----|-----|--#--|-----|-----|-----| b
-----|-----|-----|-----|--#--|-----|-----|-----| D <-THINNEST string!!
4. 3. 2. 1. (capo HERE) <= fret no.WITH capo on
(these numbers are in
these tabs!)

Intro:
Francis' guitar opening: REMEMBER CAPO ON THE 4TH FRET!
NB! Have you retuned your guitar like mentioned above??

D|---------------------------------------------------------| <- thin string
B|-3-3-(0)-1--5-5-5-3--3-3-(0)-1--5--3---------------------|
G|-0-0-(0)-0--0-0-0-0--0-0-(0)-0--0--0-- To be played -----|
D|-3-3-(0)-2--5-5-5-5--3-3-(0)-2--5--5---- 2 times --------|
G|---------------------------------------------------------|
D|---------------------------------------------------------| <- thick string

D|--------------------------------------------------| <- thin string
B|-3-3-1p0---0-1-3---------3-3-1p0---0-1-3----------|
G|-0-0-0-----0-0-0---------0-0-0-----0-0-0----------|
D|-3-3-2p0---0-2-3---------3-3-2p0---0-2-3----------|
G|---------4-------0-0-0-0---------4-------0-0-0-0--|
D|--------------------------------------------------| <- thick string

D|-----------------(0)-(0)-(0)-(0)--.. etc..------------0-| <- thin string
B|-3-3-1p0---0-1-3--0-1-3-0-1-3-0-1-3-0-1-3-0-1-3-0-1-3-0-|
G|-0-0-0-----0-0-0--0-0-0-0-0-0-0-0-0-0-0-0-0-0-0-0-0-0-0-|
D|-3-3-2p0---0-2-3--0-2-3-0-2-3-0-2-3-0-2-3-0-2-3-0-2-3-0-|
G|---------4--------------------------------------------0-|
D|--------------------------------------------------------| <- thick string

D|---------------------------------------------|
B|---------------------------------------------|
G|(0)-(0)-(0)-(0)-(0)-(0)----------------------|
D|-0---2---0---2---0---2-- etc.. --------------|
G|-0-0-0-0-0-0-0-0-0-0-0-- etc.. --------------|
D|---------------------------------------------|

Rick's entrence on his guitar:

| D-C#| B | B D-C#| B | B D-C#|...

B D-C#-B
Get down deeper and down
B D-C#-B
Down down deeper and down
B D-C#-B
Down down deeper and down
B
Get down deeper and down

E D-D-D-A/B
I want all the world to see
B
To see you´re laughing
B-C-C#-D-D#-E
And you´re laughing at me
E
I can take it all from you
F#
Again again again again again again again
B
Deeper and down
D-C#-B
Down down deeper and down
B D-C#-B
Down down deeper and down
D-C#-B
Down down deeper and down

Get down deeper and down

B E B E B
D|------------------------------------------------------| <- thin string
B|-3-3-(0)-1--5--3--3-3-(0)-1--5--3---------------------|
G|-0-0-(0)-0--0--0--0-0-(0)-0--0--0-- To be played -----|
D|-3-3-(0)-2--5--5--3-3-(0)-2--5--5---- 2 times --------|
G|------------------------------------------------------|
D|------------------------------------------------------| <- thick string

E D-D-D-A/B
I have all the ways you see
B
To keep you guessing
B-C-C#-D-D#-E
Stop your messing with me
E
You´ll be back to find your way
F#
Again again again again again again again
B
Deeper and down
D-C#-B
Down down deeper and down
B D-C#-B
Down down deeper and down
B D-C#-B
Down down deeper and down

Get down

D|-------------0----0----------------0----0-----| <- thin string
B|-3-3-(0)-3-1--1---0----3-3-(0)-3-1--1---0-----|
G|-0-0-(0)-0-0---0--0----0-0-(0)-0-0---0--0-----|
D|-3-3-(0)-3-2----2-0----3-3-(0)-3-2----2-0-----|
G|------------------0---------------------0-----|
D|----------------------------------------------| <- thick string

D|---------------------------------------------|
B|---------------------------------------------|
G|(0)-(0)-(0)-(0)-(0)-(0)----------------------|
D|-0---2---0---2---0---2-- etc.. --------------|
G|-0-0-0-0-0-0-0-0-0-0-0-- etc.. --------------|
D|---------------------------------------------|

Get down deeper and down
Down down deeper and down
Down down deeper and down
Get down deeper and down

I have found out you see
I know what you´re doing
What you`re doing to me
I´ll keep on and say to you
Again again again again again again again
Deeper and down
Down down deeper and down
Down down deeper and down
Down down deeper and down
Get down

D|-------------0----0----------------0----0-----| <- thin string
B|-3-3-(0)-3-1--1---0----3-3-(0)-3-1--1---0-----|
G|-0-0-(0)-0-0---0--0----0-0-(0)-0-0---0--0-----|
D|-3-3-(0)-3-2----2-0----3-3-(0)-3-2----2-0-----|
G|------------------0---------------------0-----|
D|----------------------------------------------| <- thick string

Re: STATUS QUO

: I NEED STATUS QUO TAB CAN ANYONE HELP?

...and I need bass tabs of Status Quo. Anyone that can help me?

looking for bass tabs

I just picked up a bass a week ago and am having a blast finding bass tabs online. I'm a fast learner when it comes to music, but I'm getting bored with some of the stuff out there. If you have any Hanson tabs I'd love it. But if you have any old funk or any new stuff I'd love that too. :) Thanks!

Re: looking for bass tabs

www.basstabarchive.com, www.tabcrawler.com

skunk anansie

i need skunk anansie guitar tabs! please...

Re: skunk anansie

If anyone has the guitar tab for S.A I can dream could they email me on gtaylor_1981@hotmail.com
Cheers

blink182

send me some blink182 please

Re: blink182

: send me some blink182 please

Re: blink182

: : send me some blink182 please the rock show, wats my age agen, manoverboard, all teh small things and 1st date wud b kewl!

Re: blink182

need chrods and tablatures of blink 182

Re: blink182

: need chrods and tablatures of blink 182
PLEASE

Good Charlotte

I want all gutiar music for Good Charlotte.

Re: Good Charlotte

: I want all gutiar music for Good Charlotte.

Re: Good Charlotte

: :so do i...any ideas where to get that music, eh? if you have any please tell me!!!!!!!!!!!

Re: blink182

: send me some blink182 please

Re: blink182

: : send me some blink182 please

Re: blink182

: : : send me some blink182 please

PLEASE I WILLL LOVE YOU FOREVER :~)

Re: blink182

bro blink 182 is the shit man can u send me some cool tab please

Re: blink182

:necesito el material hurgentemente

Re: blink182

: send me some blink182 please

Hey man, go to http://www.guitaretab.com/

starz and lillian axe tabs!

looking for tablature from the band "starz" and looking for tablature from the band "lillian axe" from the "poetic justice" album.

Post new comment

The content of this field is kept private and will not be shown publicly.
CAPTCHA
This question is for testing whether you are a human visitor and to prevent automated spam submissions. Do not include any spaces in your answer.
Image CAPTCHA
Copy the characters (respecting upper/lower case) from the image.

Contact | Advertise | Contents | Privacy Policy | Forum

This site is published by Hitsquad Pty Ltd. Copyright © 1999 - 2017 , All Rights Reserved.