need tabs for Maria Elena/Los Indios Tabajaras

Posted by Laura Soto on Thu, 07/24/03 - 21:06:24.
In Reply to GuitareTAB.com

need tabs maria elena/los indios tabajaras

Comment viewing options

Select your preferred way to display the comments and click "Save settings" to activate your changes.

Ternura, Los indios tabaharos

Dear Guitar fans!
If somebody has a tabs o sheet music of Ternura by Los indios tabaharos. please share with me here
or send it over to mterushkin@yahoo.com
thank you

Maria Elena

Hi I am looking for the TAB or sheet music for Maria Elena for acoustic Guitar.
Would appreciate if someone could send it to me.

Re: need tabs and chords for Maria Elena/Los Indios Tabajaras

: need tabs and chords
maria elena/los indios tabajaras

Maria Elena Los Indios Tabajaras tabs, hopefully w/sht music

I have been looking forever for sheet music for Maria Elena. I have found sites that offer tabs which have sheet music included. I'm still looking. Hopefully you can help

Thanks, Steve

Re: need tabs and chords for Maria Elena/Los Indios Tabajaras

: : need tabs and chords
: maria elena/los indios tabajaras

Re: need tabs and chords for Maria Elena/Los Indios Tabajaras

: : : need tabs and chords
: : Por que Eres Asi?/los indios tabajaras

Re: need tabs and chords for Maria Elena/Los Indios Tabajaras

: : : need tabs and chords
: : Por que Eres Asi?/los indios tabajaras

Re: need tabs for Maria Elena/Los Indios Tabajaras

: need tabs maria elena/los indios tabajaras

Re: need tabs for Maria Elena/Los Indios Tabajaras

: : need tabs maria elena/los indios tabajaras

Have any luck finding this tab? I'm searching also.

Re: need tabs for Maria Elena/Los Indios Tabajaras

: need tabs maria elena/los indios tabajaras
pls help me get the tabs

Re: need tabs for Maria Elena/Los Indios Tabajaras

Si
E||------2/-7--6--7--6h-7h-6-----||------------------------|
B||---------------------------9/-||---12----------------7--|
G||------------------------------||*--------------6h-7-----|
D||------------------------------||*-----------------------|
A||------------------------------||------------------------|
E||------------------------------||------------------------|

Si/ré# Ladim C Do#m
---------------------------|------------------|------9------8--9--8--7-6-|
------------11--11--10--9--|------------------|--------------------------|
------------11--11--10--9--|------------------|--------------------------|
---------------------------|------------------|--------------------------|
---------------------------|------------------|--------------------------|
---------------------------|------------------|--------------------------|

Fa#
-------------------|--------------------------|
-------------------|--7/---11------7/-11------|
----------------6--|----------------------6/7-|
-------------------|--------------------------|
-------------------|--------------------------|
-------------------|--------------------------|

Si Fa#7 Si Fa#7
-----------9-11-14-11-------------------|----------------------------2/---|
--7-----12------------14-12-------------|---------------------------------|
----------------------------13-14-13-13~|---11----------------------------|
----------------------------------------|------13-13~13-11-9--------------|
----------------------------------------|--------------------11-9---------|
----------------------------------------|---------------------------------|

Si Fa#7 Si
--11----------6--9--6--7--|---------------------------|
--------------------------|---------------------4-5-7/|
--------------------------|-----------6-4-3-4-6-------|
--------------------------|---------------------------|
--------------------------|---------------------------|
--------------------------|---------------------------|

Sol#7 Do#m Sol#7 Do#m
---------------------------|----------------------4/|--9----------6/-7-----|
--11----------11-11~11--9/-|--5----------4----4-5---|-------------------9/-|
------------------------9/-|--6-------------6-------|----------------------|
---------------------------|------------------------|----------------------|
---------------------------|------------------------|----------------------|
---------------------------|------------------------|----------------------|

Fa#7
----------------------------|----------------------------|
--11---------4h5-4----4-5-7/|--11-----------11-11~11--9/-|
--------------------6-------|-------------------------9/-|
----------------------------|----------------------------|
----------------------------|----------------------------|
----------------------------|----------------------------|

Si Fa#7 Si
-------7----6----7--6-7-6---|-------------------------|
--4-----------------------9-|--12------------------7--|
--4-------------------------|------------------6/8----|
----------------------------|-------------------------|
----------------------------|-------------------------|
----------------------------|-------------------------|

Si/Ré# Ladim Do#m Sol#7
-----------------------------|--------------------|
------10/-11-10/-11-9/-10----|--8/-9--------------|
------10/-11-10/-11-9/-10----|--8/-9--------------|
-----------------------------|--------------------|
-----------------------------|--------------------|
-----------------------------|--------------------|

Do#m Ré#m
------9------8----9--8h-7h-6--|-------------------|
------------------------------|-------------------|
------------------------------|----------------8--|
------------------------------|-------------------|
------------------------------|-------------------|
------------------------------|-------------------|

Sol#m
------------------------------------|----------------------------|
---------------------------11----12-|------------12/11-12--10/9--|
--8~-8-------9-8-7-8/13-12----13----|------------13/12-13--11/10-|
------------------------------------|----------------------------|
------------------------------------|----------------------------|
------------------------------------|----------------------------|

Si7 Mi
--------------6--7--8--9--|------------7-9-7-6--7--9--|
--10----------------------|---------------------------|
--11----------------------|---------------------------|
--------------------------|---------------------------|
--------------------------|---------------------------|
--------------------------|---------------------------|

Mim Si Fa#7
------------7-9-7-6-7-9-7-9/11-|-------16-14-11----------------------|
-------------------------------|----------------12-------------------|
-------------------------------|-------------------13-11-------------|
-------------------------------|-------------------------13-9--------|
-------------------------------|------------------------------11-9-6-|
-------------------------------|-------------------------------------|

Si Ladim Do#m
-------------------------|---------------------------4-9-|
--------------7/-12------|-----------4-5-7-5---4-5-7-----|
-----------8---------13--|-------5-6---------6-----------|
-------------------------|-------------------------------|
-------------------------|-------------------------------|
--7----------------------|-------------------------------|

Fa#7 Si Fa#7
--6-------------------6-7-9/|--11-----16-14-11----------------------|
------------9-7-6-7-9-------|------------------12-------------------|
----------------------------|---------------------13-11-------------|
----------------------------|---------------------------13-9--------|
----------------------------|--------------------------------11-9-6-|
----------------------------|---------------------------------------|

Si Do#m
-------7----6--7--6-7-6----||------------------9------|
------------------------9--||---------------9-----11--|
--------------------------*||--13--------9------------|
--------------------------*||-------------------------|
---------------------------||-------------------------|
--7------------------------||-------------------------|

Fa#7 Si Mi Si F# Si
------------------11/-9--7--|----------7--------|--7----------------|
--------------11------------|-------------------|-------------------|
----------11----------------|-------------------|-------------------|
----------------------------|-------------------|-------------------|
----------------------------|-------------------|-------------------|
----------------------------|-------------------|-------------------|

------------------||
------------------||
------------------||
------------------||
------------------||
------------------||

thank you

Just want to say thank you for this guitar tab of Maria Elena
I have been looking for for a long time.

Be blessed.

Re: need tabs for Maria Elena/Los Indios Tabajaras

I'm also looking for tabs or the sheet music. Any luck?? It would help if someone found it and could pass it on!

Post new comment

The content of this field is kept private and will not be shown publicly.
CAPTCHA
This question is for testing whether you are a human visitor and to prevent automated spam submissions. Do not include any spaces in your answer.
Image CAPTCHA
Copy the characters (respecting upper/lower case) from the image.

Contact | Contents | Privacy Policy | Forum

This site is published by Hitsquad Pty Ltd. Copyright © 1999 - 2017 , All Rights Reserved.