Amr Diab - Tamale ma3ak

Posted by ZeEzOo on Sun, 02/13/05 - 08:57:22.
In Reply to ez guitar

Amr Diab - Tamale ma3ak

Main riff done with minor variations throughut the song

C#m A B C#m
---------|-----------|------------------------------|
---------|-----------|------------------------------|
---------|-----------|-----4-----------4------------|
-4-6-7-6-|-6-4-6-7-6-|-6p7---7-6-7-7p6----7-6-4-7-6-|
---------|-----------|------------------------------|
---------|-----------|------------------------------|
C#m/E
Tamale ma3ak
E ( You can lose this E )
wa law 7ata ba3eed 3anne fey albe hawak

tamale ma3ak
G#m
tamale fey bale we fey albe wall bansak
A B C#m/E
tamale wa7shnee law 7ata bakoon wayak

C#m
ana ele 7abebe bashta2 lak

Ana ele 3enya tendhlak
A
we law 7awalya kol el koon
B
bakoon ya 7abebe me7taglk

Solo :
On verse Chords (Some parts are played rapidly,listen to the record to get timing and feel)

---------4-------------------7-5-4-5-4--------------
-----------7-5-5-4-------5h7-----------7-5-4-4-5-7--
-----4h6--------------6h8---------------------------
-4h6------------------------------------------------
----------------------------------------------------
----------------------------------------------------

------------------------------------------------
-5h7-7-7--5-5-5-4hp5-4--------------------------
----------------------4h6-2-4-2-1-1-------------
------------------------------------------------
------------------------------------------------
------------------------------------------------

------------------------------------------------
-----------------------------------12s10-10s9---
-6-5----6-8-9-8hp9-6--6-8-9--11sx---------------
-6-5--6-----------------------------------------
-4----------------------------------------------
------------------------------------------------

--------------------|
--------------------|
---9-8--------------|
-------9-7-6-6hp7-6-|
--------------------|
--------------------|

---------------------------------------

Post new comment

The content of this field is kept private and will not be shown publicly.
CAPTCHA
This question is for testing whether you are a human visitor and to prevent automated spam submissions. Do not include any spaces in your answer.
Image CAPTCHA
Copy the characters (respecting upper/lower case) from the image.

Contact | Advertise | Contents | Privacy Policy | Forum

This site is published by Hitsquad Pty Ltd. Copyright © 1999 - 2017 , All Rights Reserved.