Amr Diab - Osad 3eene

Posted by ZeEzOo on Sun, 02/13/05 - 08:58:14.
In Reply to ez guitar

Amr Diab - Osad 3eene

Intro :
now the intro is played with 2 guitars and a piano,this arrangement is for the piano
and the first high guitar that plays on the high e string.
Cm Ab
---------8--11----|------------------11----11-|
--------8-8-------|----------------13--13-----|
-------8---8------|--------------13------13---|
-5-8-10-----------|-12-12-10-8-13-------------|
------------------|---------------------------|
-----8------------|---------------------------|

Bb Cm
-------------------10----13-|-------------------8--11-|
-----------------11--11-----|------------------8-8----|
---------------10------10---|-----------------8---8---|
-13-13-13h15-12-------------|-12-12-12b10-8-10--------|
----------------------------|-------------------------|
----------------------------|---------------8---------|

this is the Riff that guitar 2 plays,it's repeated a lot througout the songs

Cm Ab Bb Cm
-----------|---------------|----------------|-----------|
-----------|---------------|----------------|-----------|
-0-3-3s5-5-|-8-8-7-5-7-8-8-|-8-8-8s10-8s7-7-|-7-7-5-3-5-|
-----------|---------------|----------------|-----------|
-----------|---------------|----------------|-----------|
-----------|---------------|----------------|-----------|

Verse : you can strum the barred chords or play the intro pattern,
I suggest both :)
Cm
We bena ma3ad
Ab
law e7na b3ad
Bb
akeed rage3 we law
Cm
beene we beeno belad

Fm6
Osad 3eene
Cm
fey kol makan
Fm6
Osad 3eene
Cm
Fey Kol Makan

Eb
We men tanee akeed rag3een
Ab6
ana dayeb we kole 7aneen
Bb
wala 3omree abee3 law meen
Cm
osad 3eene

same for the all verses

Solo :
-----------|----------------------------------|
-----------|------------6s8s6-----------------|
-0-3-3s5-5-|-8-8b7-5h7--------7-7h8-0-5s7-5-0-|
-----------|----------8-----------------------|
-----------|----------------------------------|
----------------------------------------------|

---------------------------------------|
-4s6-6-6-6-6s4-4-4-4-3-3-3-1-3-4-1-3-4-|
---------------------------------------|
---------------------------------------|
---------------------------------------|
---------------------------------------|

----8-10-11---|-13-13-13-12-10hp11-11--------|
-8-9--------9-|----------------------9-------|
--------------|------------------------10s12-|
--------------|------------------------------|
--------------|------------------------------|
--------------|------------------------------|

---11-11-11-10-10-8--8----|
--------------------------|
---13-13-13-12-12-10-10---|
--------------------------|
--------------------------|
--------------------------|

Our date is on
Even if we're far away
I'll be back for sure
If there's countries between us

In Front Of My Eyes
Everywhere
In Front Of My Eyes
Everywhere

And again for sure we'll be back
I'm in love and full of eagrness
And I'd never let go no matter who's in front of my eyes

--------------------------------

Comment viewing options

Select your preferred way to display the comments and click "Save settings" to activate your changes.

Re: Amr Diab - Osad 3eene

By the way the following email adress has to be displayed in these 3 last added tabs (metia_kickass@hotmail.com) as it is their authentic source.
Thank you

Post new comment

The content of this field is kept private and will not be shown publicly.
CAPTCHA
This question is for testing whether you are a human visitor and to prevent automated spam submissions. Do not include any spaces in your answer.
Image CAPTCHA
Copy the characters (respecting upper/lower case) from the image.

Contact | Contents | Privacy Policy | Forum

This site is published by Hitsquad Pty Ltd. Copyright © 1999 - 2017 , All Rights Reserved.