The TabWorld.com

Tabs, chords, lyrics, lessons, links, search, discussions, news, etc !

1000s of tabs / chords for guitar, bass and drums plus lyrics and lessons. Tab / band search engine, disucssion board, links, and much much more. Clear layout, no annoying banners or popups. Hourly updated index !



Comment viewing options

Select your preferred way to display the comments and click "Save settings" to activate your changes.

send me passenger seat tabs

pls send me a free 'passenger seat' tabs,thanks!

Re: send me passenger seat tabs

: pls send me a free 'passenger seat' tabs,thanks!

Re: send me passenger seat tabs

: : pls send me a free 'passenger seat' tabs,thanks! and chords thanks

need creed songs

please send me all of creeds songs that you can send I want to play all of them on my Martin D-28 guitar

needs tab

Please Send me tab of Maxwell's Whenever, wherever, Whatever. Thanks.

send me pls. a tab of red hot chilli peppers

hi,
thank you for your tab...hope you sent me....

filipino

send me some tabs

Re: filipino

: send me some tabs

speaks/passenger_seat.crd

Artist: Stephen Speaks
Title: Passenger Seat
Tabbed by: Launchpad Domer
email: tmillea@nd.edu

Capo 5th fret, all tabs relative to capo

But first the intro...
e-------------------3---2-
b--------3-------3--3---3-
g-----2-----0h4---------2-
d---0---------------------
a-------------------------
E-------------------------

The rest follows the same pattern throughout:

D: xx0232
D/B: x20032
G: 320033
Em7?: 002030

A couple notes: the D and D/B flirt with the sus4 and sus2 a little,
and the Em7? chord does this:

-0---0---0-
-0---2---3-
-0---0---0-
-2---2---2-
-0---0---0-
-0---0---0-

...at the end of each runthrough. Listen to it to get the feel.
And go to StephenSpeaks.com for lyrics or mp3's. Peace out.

Pat Millea
U. of Notre Dame
210 Keough Hall
Notre Dame, IN 46556-5656
(219) 634-4240
tmillea@nd.edu

Comments (6)
TlDUS
0 posts
Philippines

10.4.2003 18:18 e |---------------------------------------------------------------|
B |---------------------------------------------------------------|
G |--------------------------9-7h9h7------------------------------|
D |---------------7h9-9^10r9--------9~----------------------------|
A |--7^8r7-5-9h10---------------------9h10-9-9/12-10h12-10-9-9h10~|
E |---------------------------------------------------------------|

e |--------------------------------------------------------------|
B |--------------------------------------------------------------|
G |----------------------------------------------7--9x-9/12------|
D |-----------------------------7h9-9^9.5r9-7h9------------------|
A |--10--10/12-10-9-10--9-9h10-----------------------------------|
E |--------------------------------------------------------------|

e |--------------------------------------------------------------|
B |--------------------------------------------------------------|
G |--11-12--14-12h14p12/11-11-11h12p11-9-11p9-7-9r7-6/7-7~-------|
D |-------------------------------------------------------5h7-5--|
A |--------------------------------------------------------------|
E |--------------------------------------------------------------|

e |---------------------|
B |---------------------|
G |---------------------|
D |--5-5h7r5-4----------|
A |-------------7^8.5-5~|
E |---------------------|

Here Ya go adlib part

--------------------------------------------------------------------------------

Unregistered
9.3.2003 18:04 the letters are too small

--------------------------------------------------------------------------------

Unregistered
4.3.2003 0:19 kinly please see me the chords of passenger seat by stephen speaks step by step ? please

--------------------------------------------------------------------------------

Unregistered
3.3.2003 20:58 where's the tab of the adlib. part of this song

--------------------------------------------------------------------------------

Unregistered
8.2.2003 23:12 #-----------------------------PLEASE NOTE-------------------------------------#
#This OLGA file is the author's own work and represents their interpretation #
#of the song. You may only use this file for private study, scholarship, or #
#research. Remember to view this file in Courier, or some other monospaced #
#font. See http://www.olga.net/faq/ for more information. #
#-----------------------------------------------------------------------------#

Date: Sun, 9 Feb 2003 03:54:07 -0500
From: Algerico Capirig
Subject: s/stephen_speaks/passenger_seat.crd

Artist: Stephen Speaks
Title: Passenger Seat
Tabbed by: Algerico Capirig

intro...
e------------3---------3--------------------------
b--------3-------1h3---3--------------------------
g-----0----------------------D-Em-C-Dsus-D--------
d--------------------------5----------------------
a-------------------------------------------------
E-------------------------------------------------

Bridge:
C Em
Oh and I know
C D
This love grows

Solo:

G-Dsus-Em-C-D

guitar music chords.

looking in to Santanas, and India Aries music,chords.

MUSIC

Can you find me the "Hurricane" please I think it,s sung and played by Bob Dylan if you guys could do this for me that would be great 'I could even mention this website to my friends and band members!! Plus anything by Elvis would be a bonus!!

MUSIC

Can u find me the "Hurricane" plaese i think it,s song and played by Bob Dylan if u guys could do this for me that would be great 'I could even mention this website to my friends and band members!! Plus anything by Elvis would be a bonus!!

send me PLS a tabs of Cheese

send me PLS a tabs of Cheese

This popular thread has been given its own page : send me PLS a tabs of Cheese

Post new comment

The content of this field is kept private and will not be shown publicly.
CAPTCHA
This question is for testing whether you are a human visitor and to prevent automated spam submissions. Do not include any spaces in your answer.
Image CAPTCHA
Copy the characters (respecting upper/lower case) from the image.

Contact | Contents | Privacy Policy | Forum

This site is published by Hitsquad Pty Ltd. Copyright © 1999 - 2019 , All Rights Reserved.