Hindi Guitar Tabs chords Indian Songs

Hindi Guitar Tabs chords Indian Songs

Hindi guitar tabs, hindi lyrics of bollywood songs. Indian guitar Tablature, guitar chords and tabs. hindi songs guitar tabs of classical guitar. Learn to read guitar pro tabs.

Guitar tabs for hindi songs & music lyrics of old and new film - movie like lucky ali, shaan, euphoria, AR Rehman. Learn to play guitar online from our guitar lesson & become a pro with electric, acoustic guitars. Find sheet music of hindi & english song.

Comment viewing options

Select your preferred way to display the comments and click "Save settings" to activate your changes.

get me some guitar tabs

pls send me some latest hindi songs tabs & chords like kal ho nan ho, abijeet album songs & like that.

REQ: tabs for dil chahta hai songs

hi guys, can u give me the tabs for DCH songs?? thanks a lot

tabs

plz snd me hero flute theme

I need help

Need the lucky ali song called Ek Pal fromm the movie Kaho na Pyaar hai there is a guiatar part in it its in the beginnig and in some parts through the songs. Please HELP!

chords of tune mujhe pehchana nahi (film raju chacha)

could you please let me know the guitar chords for the song "tune mujhe pehchana nahi"

Re: chords of tune mujhe pehchana nahi (film raju chacha)

try this
Am,G
Em,F....
n it goes on n on.njoy

Re: aap ki kashish guitar chords from aashiq banaya apne

: could you please let me know the guitar chords for the song aap ki kashish

Re: yaroon lyrics and guitar chords by kk

: could you please let me know the guitar chords for the song yaroon

Re: yaroon lyrics and guitar chords by kk

Chords and Tabs Combined]

Terey Laboon Pay Inkar Hay Marey Laboon Pay ikrar Hay
Haan Yahi To Hain Sub Nishania Isi Ka Naam Piyar Hay
Am Asus Am
|-----------------------------------------------|
|-1-----3----1-----3----------------------------|
|-2-----2----2-----2-----------------------------|
|-2-----2----2-----2-----------------------------|
|-----------------------------------------------|
|-----------------------------------------------|

Hmmm....... Hmmm.....
Am D Am D

|-----------------------------------------------|
|-----------------------------------------------|
|---4-5--7---4----------------------------------|
|-7--------------5---7--------------------------|
|------------------7----------------------------|

i like to play the tune like this...

|-----------------------------------------------|
|-----------------------------------------------|
|--2-4-5-7-4-----2--------------------------------|
|-------------5-2------------------------------|
|----------------------------------------------|

Tu may Mujay Pahchana Nahi
Am E
Jana Main Koi Anjana Nahi
G F
Ashiq Hon Main Tere Naam Ka
C D
Dewana Hoon Main Dewaana Nahi
E7 E

Hmmm.... Hmmm..... Hmm... Hmm Hm...
Am D Am D F G Am

|-----------------------------------------------|
|-----------------------------------------------|
|---4-5--7---4----------------------------------|
|-7--------------5---7--------------------------|
|------------------7----------------------------|
|-----------------------------------------------|

Naam Badal Kay Tu Kahti Hay
Am G#
Tu Woh Nahi Hay Koi Aur Hay
Am G#
Tu Nay Dhi Thi Yah Angothi
G D
Yah Kahti Hay Tu hay Jothi
F E7 E

Hmmm.... Hmmm..... Hmm... Hmm Hm...
Am D Am D F G Am

|-----------------------------------------------|
|-----------------------------------------------|
|---4-5--7---4----------------------------------|
|-7--------------5---7--------------------------|
|------------------7----------------------------|
|-----------------------------------------------|

Am G F G Am x6

|------8-------7-8-10-8-7-----------------------|
|--------10-10------------8---------------------|
|----9----------------------7-7-9-7/6-7---------|
|-----------------------------------------------|
|-----------------------------------------------|
|-----------------------------------------------|

|------8-------7-8-10-8-7-----------------------|
|--------10-10------------8---------------------|
|----9----------------------7-7-9-7/6-7---------|
|-----------------------------------------------|
|-----------------------------------------------|
|-----------------------------------------------|

|-----------------------------------------------|
|-----------------------------------------------|
|--------7-8-9--7-7-8-9--7-8-9--7-7-8-9---------|
|-----------------------------------------------|
|-----------------------------------------------|
|-----------------------------------------------|

|-----------------------------------------------|
|-----------------------------------------------|
|--------7-8-9--7-7-8-9--7-8-9--7-7-8-9---------|
|-----------------------------------------------|
|-----------------------------------------------|
|-----------------------------------------------|

|-----------------------------------------------|
|-----------------------------------------------|
|---4-5--7---4----------------------------------|
|-7--------------5---7--------------------------|
|------------------7----------------------------|
|-----------------------------------------------|

Re: jaadugar guitar chords from silk routes

: could you please let me know the guitar chords for the song jaadugar

Re:aap ki kashish chords from aashiq banaya apne

: could you please let me know the guitar chords for the song "tune mujhe pehchana nahi"

Re:yaroon lyricsand guitar chords by kk

: could you please let me know the guitar chords for the song "tune mujhe pehchana nahi"

Re:yaroon luricsand guitar chords by kk

: could you please let me know the guitar chords for the song "tune mujhe pehchana nahi"

Re: chords of tune mujhe pehchana nahi (film raju chacha)

here's the chord sequence of ur song "Tune mujhe pehchana nahin"
tune mujhe......
Am E G F

aashiq hoon......
Am Am E G

hmmm.......
Am G Am G
F G Am

Re: chords of tune mujhe pehchana nahi (film raju chacha)

: could you please let me know the guitar chords for the song "tune mujhe pehchana nahi"

Re: chords of tune mujhe pehchana nahi (film raju chacha)

: : could you please let me know the guitar chords for the song "tune mujhe pehchana nahi"

Re: chords of tune mujhe pehchana nahi (film raju chacha)

: : : could you please let me know the guitar chords for the song "tune mujhe pehchana nahi"

Re: chords of tune mujhe pehchana nahi (film raju chacha)

: : : : could you please let me know the guitar chords for the song "tune mujhe pehchana nahi"

Re: chords of tune mujhe pehchana nahi (film raju chacha)

: : : : : could you please let me know the guitar chords for the song "tune mujhe pehchana nahi"
i just love the sequence of chords in that song

Re: chords of tune mujhe pehchana nahi (film raju chacha)

: could you please let me know the guitar chords for the song "tune mujhe pehchana nahi"

Re: chords of tune mujhe pehchana nahi (film raju chacha)

: : could you please let me know the guitar chords for the song "tune mujhe pehchana nahi".Thanx a lot.

Re: chords of tune mujhe pehchana nahi (film raju chacha)

: could you please let me know the guitar chords for the song "tune mujhe pehchana nahi"

Re: chords of tune mujhe pehchana nahi (film raju chacha)

: : could you please let me know the guitar chords for the song "tune mujhe pehchana nahi"

Re: chords of tune mujhe pehchana nahi (film raju chacha)

: : : could you please let me know the guitar solo for the song "tune mujhe pehchana nahi"

Tune mujhe pehchana nahi
Am-------------G
jana main koi anjaana nahi..
D---------------F
aashiq hoon main tere naam ka
---------------------C
deewana hoon main deewana nahi
E
humming part...
Am--Dm x2
F--G--Am

naam badal ke tu kehti hai
Am---------------B
tu woh nahi koi aur hai
Am---------------B
tune di thi ye angoothi
G---------------A
ye kehti hai tu hai jhoothi
F-----------------D

Re: chords of tune mujhe pehchana nahi (film raju chacha)

Hi,
I dunno the chords but i do play the tune reasonably well.I live in mumbai.

Re: chords of tune mujhe pehchana nahi (film raju chacha)

plz send me chordz of any hindi , english, n telugu songs
thank u
bye

composed punjabi songs

any one have composed punjabi songs plz send me

Kal Ho Naa Ho

Is any body know the tabs for Kal Ho Naa Ho?

Re: Kal Ho Naa Ho

: Is any body know the tabs for Kal Ho Naa Ho?

cm g am

Re: Kal Ho Naa Ho

: : Is any body know the tabs for Kal Ho Naa Ho?

: cm g am

Re: Kal Ho Naa Ho

: : : Is any body know the tabs for Kal Ho Naa Ho?

plz send me the chords and tabs of Kal Ho Naa Ho

guitar chords of kal ho na ho title song

pattern : country beat
C..................................Em
har ghadi badal rahi hai roop zindagi,
C.....................................Em
chavn hai kahin kahin hai dhoop zindagi,
F.....................C
har pal yahan jee bhar jiyo,
F.....A#..............C
jo hai saman kal ho na ho...

1. G.............................C
chahe jo tumhe poore dil se,
G.........................C
milta hai wo mushkil se,
G..............C
aisa jo koi kahin hai,
G.....................C
bas wahi sabse hasin hai,
F.................C
us hath ko tum tham lo,
F.............
wo meharbaan kal ho na ho,
F.....................C
har pal yahan jee bhar jiyo,
F...A#................C
jo hai saman kal ho na ho

I hope, it'll help u...

"hum hain rahi pyar ke" -kishore kumar guitar tabs

Hi,

Could anyone please send me the tabs for "hum hain rahi pyarke" song by kishore kumar from the movie nau do gyarah?

Thanks alot

guitar chords of raja ko rani se pyar ho gaya

yar iss film ka woh song raja ko rani se pyar ho gaya

Re: guitar chords of o o jane jana

: yar pyar kiya to darna kya ka o o jane jana

Re: guitar chords of o o jane jana

: : jab pyar kiya to darna kya ka ....o o jane jana

Re: guitar chords of o o jane jana

: : jab pyar kiya to darna kya ka ....o o jane jana

Re: guitar chords&strings of raja ko rani se pyar ho gaya

: yar iss film ka woh song raja ko rani se pyar ho gaya

Lucky ali

Send me the Guitar tabs for lucky ali songs.

kk

: Send me the Guitar tabs for kk's songs.

Re: Lucky ali

: Send me the Guitar tabs for lucky ali songs.

Re: Lucky ali

: : Send me the Guitar tabs for lucky ali songs.

Re: Lucky ali

: : : Send me the Guitar tabs for lucky ali .strings,junoon
and for the song dum from the movie dum with chords

Re: Lucky ali

: Send me the Guitar tabs for lucky ali songs.

Help:help with pal by KK(plucking)

CAN YOU PLZ HELP ME WITH PLUCKING OF KK'S PAL(YAARON)...
PLZ DO MAIL ME 'VE GOT SOME TABS N CHORDS WAITING FOR YOU..
.............PLZ

Re: Help:help with pal by KK(plucking)

: CAN YOU PLZ HELP ME WITH PLUCKING OF KK'S PAL(YAARON)...
: PLZ DO MAIL ME 'VE GOT SOME TABS N CHORDS WAITING FOR YOU..
: .............PLZ

Re: Help:help with pal by KK(plucking)

Same Problem
I need the guitar chords for the songs Yaaron and Pal by KK........
Plz mail me the chords.....

Re: Lucky ali

: Send me the Guitar tabs for lucky ali songs.
and also the keyboard tabs

thank you is advance

Re: Lucky ali

: : Send me the Guitar tabs for lucky ali songs.
: and also the keyboard tabs

: thank you is advance

Know the CHORDS

send me E-mail on himanshuup@hotmail.com to know chords of any hindi or english songs.

Post new comment

The content of this field is kept private and will not be shown publicly.
CAPTCHA
This question is for testing whether you are a human visitor and to prevent automated spam submissions. Do not include any spaces in your answer.
Image CAPTCHA
Copy the characters (respecting upper/lower case) from the image.

Contact | Contents | Privacy Policy | Forum

This site is published by Hitsquad Pty Ltd. Copyright © 1999 - 2017 , All Rights Reserved.