kabhi kabhi aditi

Advertisement
Posted by Vijay on Sat, 08/02/08 - 07:21:51.

can any one pls post me guitar tab of kabhi kabhi aditi from jaane tu ya jaane na

Comment viewing options

Select your preferred way to display the comments and click "Save settings" to activate your changes.

Re: tujhe dekha to yeh jana sanam

: can any one pls post me guitar tab of tujhe dekha to yeh jana sanam.

Re: Needed chords and tabs for tere bin song orginal

: : can any one pls post me guitar tab of tujhe dekha to yeh jana sanam.

Re: tujhe dekha to yeh jana sanam

: : can any one pls post me guitar tab of tujhe dekha to yeh jana sanam.

E 0-0-0-7-5-7—3-5---8-7 0-0-0-7-5-7—3-5—3-2 repeat once

E 0-2------0-2----0-3-2-------------0-2----0-2----3-2-0

B ---3---------3--------------------------3-------3---------

E 7-8------12-12---7------7-8-------12-12--7------5-7-8------8-7--------5-7-8-------8-7

B ----------------------------------------------------------------7-7---------------------7-7-----

E 7-5-7----------------7-5-7-------5--------5-5-5----10-9-10-----9---7---5---3---2-0

B ------8-7-5------------------8-7-----------------------------------------------------------

0-0-0-7-5-7—3-5---8-7 0-0-0-7-5-7—3-5—3-2 repeat once

0-2------0-2----0-3-2-------------0-2----0-2----3-2-0

---3---------3--------------------------3-------3---------

2-0-2---0-2------0-2----0-3-2-------------2-3---5----8-7-5----3-5-7-----5-3-----2-0

-------------3---------3-----------------------------------------------------------------------

Re: tujhe dekha to yeh jana sanam

: : can any one pls post me guitar tab of tujhe dekha to yeh jana sanam.
plz

Re: kabhi kabhi aditi

Gm Cm Gm Cm......
then F and then again Gm

Re: kabhi kabhi aditi

: can any one pls post me guitar tab of kabhi kabhi aditi from jaane tu ya jaane na

Re: kabhi kabhi aditi

: : can any one pls post me guitar tab of kabhi kabhi aditi from jaane tu ya jaane na

Re: kabhi kabhi aditi

: : : can any one pls post me guitar tab of kabhi kabhi aditi from jaane tu ya jaane na

Re: kabhi kabhi aditi

: : : : can any one pls post me guitar tab of kabhi kabhi aditi from jaane tu ya jaane na

Please Help Me Out

Can Any One Send Me Chords and Tabs of Saawariya's title Track

Re: kabhi kabhi aditi

: : : : : can any one pls post me guitar tab of kabhi kabhi aditi from jaane tu ya jaane na

Re: kabhi kabhi aditi

: : : : : : can any one pls post me guitar tab of kabhi kabhi aditi from jaane tu ya jaane na

kabhi kabhi aditi or nazare milana from jaane ya jaane na

: : : : : : : can any one pls post me guitar tab of kabhi kabhi aditi from jaane tu ya jaane na

Love

Guitar Chords and Notations

Re: kabhi kabhi aditi

: can any one pls post me guitar tab of kabhi kabhi aditi from jaane tu ya jaane na

Re: kabhi kabhi aditi

: : can any one pls post me guitar tab of kabhi kabhi aditi from jaane tu ya jaane na
puhleeeeezzzz

Re: kabhi kabhi aditi

: can any one pls post me guitar tab of kabhi kabhi aditi from jaane tu ya jaane na

Re: kabhi kabhi aditi

: : can any one pls post me guitar chord of kabhi kabhi aditi from jaane tu ya jaane na

Post new comment

The content of this field is kept private and will not be shown publicly.
CAPTCHA
This question is for testing whether you are a human visitor and to prevent automated spam submissions. Do not include any spaces in your answer.
Image CAPTCHA
Copy the characters (respecting upper/lower case) from the image.

Contact | Advertise | Contents | Privacy Policy

This site is published by Hitsquad Pty Ltd. Copyright © 1999 - 2014 , All Rights Reserved.