Punk & SKA Tabs From JamSpot

Punk & SKA Tabs From JamSpot

Punk and Ska tabs for guitar and bass.

We've got a lot of good punk & ska guitar & bass tabs. Please visit if your lookin for some of your favorite underground or mainstream punk & ska band's tabs.

Comment viewing options

Select your preferred way to display the comments and click "Save settings" to activate your changes.

tabs

i need some fuckin drum tabs for new found glory
my heart will go on and glory of love

Re: tabs

: i seriously need the drum tabs for new found glory
: glory of love

help!!!!!!!!!!!!!!!

Re: tabs

i need drum tabs to my friends over you and head on collision.

NOFX- Ska Sucks bass tabs

i cant find the tabs for Ska Sucks by nofx. can any of ya help me out?

Re: NOFX- Ska Sucks bass tabs

: i cant find the tabs for Ska Sucks by nofx. can any of ya help me out?

yes, it's by propaghandi, not nofx. help?

please can anyone send me RxB and Hippos Bass tabs

please can anyone send me RxB and Hippos Bass tabs

MEST TABS

I NEED MEST TABS.....DRAWING BOARD

Re: MEST TABS

: I NEED MEST TABS.....DRAWING BOARD

Re: MXPX TABS

: : I NEED MXPX TABS.....TOMORROW'S ANOTHER DAY

Re: MEST TABS

: : I NEED MXPX TABS.....TOMORROW'S ANOTHER DAY

Re: MEST TABS

: I NEED MEST TABS.....DRAWING BOARD

Re: MEST TABS

: : I NEED MEST TABS.....OPINIONS

Re: MEST TABS

: I NEED MEST TABS.....what´s the dillio? Please i need quickly

Re: MEST TABS

: : I NEED MEST TABS.....what´s the dillio? Please i need quickly whats the dillio?

Re: MEST TABS

: : I NEED MEST TABS.....what´s the dillio? Please i need quickly

need tabs please

i need the whats the dillio tabs urgently please!!

Re: need tabs please

: i need the whats the dillio tabs urgently please!!

Intro
e|-------------------------------------------------|
B|-------------------------------------------------|
G|-------------------------------------------------|
D|------6-9----------------6-9---------------------|
A|-7-7-7---------6-9--7-7-7---------6--------------|
E|----------7-7-7---------------7-7---7------------|
Intro cont
e|-------------------------------------------------|
B|-------------------------------------------------|
G|-------------------------------------------------|
D|------6-9----------------6-9---------------------|
A|-7-7-7---------6-9--7-7-7----7-9-11--------------|
E|----------7-7-7----------------------------------|

Verse ska upsotrokes
e|--7-7---7-7---9--9---------|
B|--9-9---7-7---11-11--------|
G|--9-9---8-8---11-11--------|
D|--9-9---9-9---11-11--------|
A|--7-7-—-9-9---9--9---------|
E|-------------------------|

Pre chorus (he plays this near the end ansd strums instead on hitting once)
e|------------------|
B|------------------|
G|------4-----------|
D|-2----4----4------|
A|-2----2----4------|
E|-0---------2------|

Chorus (again skaupstrokes) but does put distortion on near end
e|-7----7----7----7----7----7----7----7----7----7----7----7----7----7----9----9-|
B|-9----9----7----7----9----9----7----7----9----9----7----7----9----9---11---11-|
G|-9----9----8----8----9----9----8----8----9----9----8----8----9----9---11---11-|
D|-9----9----9----9----9----9----9----9----9----9----9----9----9----9---11---11-|
A|-7----7----9----9----7----7----9----9----7----7----9----9----7----7----9----9-|
E|-----------7----7--------------7----7--------------7----7---------------------|

Solo
|--------------------------------------------------------------|
|--------------------------------------------------------------|
|-4--9-9-9-8------------------------9-9-9-8--------------------|
|------------9—9-11-11--13--11--------------9---9-9-9-11--8----|
|----------------------------------9-------------------------9-|
|--------------------------------------------------------------|
Solo cont
|----------------------------------------------------------------|
|-9---9--9--7-----------------------9---9--9--7------------------|
|-9---9--9--8---8---9--9—-9-11--9---9---9--9--8---8--------------|
|---------------9--11-11-11-13-11-----------------9---12---------|
|----------------------------------------------------------------|
|----------------------------------------------------------------|

Re: MEST TABS

: I NEED MEST TABS.....what´s he dillio? Please i need quickly

I need saves the day and ataris guitar tabs

hey if i could get some saves the day (preferably "Sell my Old Clothes, I'm Off to Heaven")....and some ataris, (maybe "The Last Song I will ever write about a girl" or "Your boyfriend sucks" that would be great.

i know those ones

: give me a place to send them and i will give you all the songs you want

Re: i know those ones

Could you send all the Saves The Day tabs that you have to me? My e-mail is: dollarfive@yahoo.com
Thanks!!

-dollarfive

send hippos guitar tabs

Can you please send me any hippos guitar tabs that you have? THANKS!!!

send hippos guitar tabs

Can you please send me any hippos guitar tabs that you have? THANKS!!!

Please send me Mest Drawing Board Bass Tab

Please send me mest drawing board bass tab

i need hot water music guitar tabs

hi , i`m from brasil and i need HWMtabs , driving home , 220 years , ect , thankx guys , ,bye, tchau !!!

Re: i need hot water music guitar tabs

I am looking for HWM tabs aswell, if i get any i will let you know. Have you found any?? Especially THree Summers Strong and Dont Say you Lost it.

i against i tab

I need the Bad Brains "i against i" bass tab, can anyone send it to me.

i against i - time!!

has anyone guitar tabs for i against i? (expecially time)
if, please send them to me!
greets from switzerland!!!

need some mxpx tabs

i need some mxpx: sumer of 69 tabs

i nrrd impossibles lyrics

if anyone has lyrics for the impossibles' "never say goodbye", particularily the chorus, can you send it to me? thnx!

Re: i nrrd impossibles lyrics

-Never Say Goodbye-

some summer sunday
drifting between sleep and waking
your absence brought me to
sick feelings building
slowly remembering
the bitterness of the final kiss motionless

CHORUS:
we never said goodbye
when we gave in but we don't mind
if we never say goodbye
there'll be no end there'll be no end

stream of consciousness
leads me to drowning dreams
looking up you're colored baby blue
the frustration of
knowing what it's like
to breathe you in and remember when remember when

CHORUS

get up kids keyboard tabs

if anyone has keyboard tabs of the get up kids or knows where i can get them please tell me.

I need Good charlotte tabs for guitar please

i need the tabs to Complicated A.S.A.P. PLEASe!!!!!
thank you

I NEED NEW FOUND GLORY TABS!!!!!

If anyone has any new found glory tabs please send them to me thanks

Re: I NEED NEW FOUND GLORY TABS!!!!!

Self titled CD~
need more email me at NFG_PUNKZ@YAHOO.COM
#3:

intro-
E|--33-------55------88---------
A|------------------------------
D|------4-5------4-5------------
G|------------------------------
Go to newfoundglorytabs.com for the rest of this song

hit or miss-

E|-----------------------------------
A|-----------------------------------
D|-------3333-5555-0000--------------
G|-3333-------------------------------
repeat whole song

Eye sore-
intro (all ive tabbed)~
E|--5(hold)--2(hold)----------------------
A|-------------------4(hold)-2(h)---------

Re: I NEED NEW FOUND GLORY TABS!!!!!

Friend in Pennsylvania

Intro/Post Chorus:
E--------------------------------
B--------------------------------
G--5---5---2-----------------------
D--5---5---2---3--------------------
A--3---2---0---3--------------------
E--------------1-------------------

Verse:
E--------------------------------
B--------------------------------
G--5-----------------------------
D--5-----3--------------------
A--3-----3--------------------
E--------1-----------------

Chorus:
E--------------------------------
B--------------------------------
G-------------------------------
D---7---5---3---5-------------------
A---7---5---3---5-------------------
E---5---3---1---3-------------------

Something like that. I hope that helped. I know it seems like everybody says this, but that's my first tab. Haha. Any more NFG or Ataris or Blink, email me ajester00@prodigy.net

Tabs

If anyone has The Despair factors tabs I really need them bad so can someone email them to me

Find all the tabs ppl r wining about on this site---> www.tabrehab.cjb.net

Find all the tabs ppl r wining about on this site---> www.tabrehab.cjb.net

I need a SW bass tab...

Hey! Does any1 have bass tab for "I Need Therapy" by Screeching Weasel? If 'ya do, drop me a mail, thanx!

AFI 6 to 8 bass tabs please!

if you got the bass tabs for 6 to 8 by AFI please send them to me!!! e-mail with info

Re: AFI 6 to 8

if you want them send me an e mail

I need MxPx- First Class Mail

Hey bro (or broette),
I'm in a band, and ummmm... I suck, but I want to play this song. So if you've tabbed it, or would like to, please email it to me, thanks a lot!

,Jake (the Snake)

AFI-Who Said You Could Touch Me Anyway?

Does anyone know this tab or know where I can find it? Thanks.

Re: AFI-Who Said You Could Touch Me Anyway?

the tabs for "who said you can touch me?" is as followesINTRO / VERSE
G I--------------------------------------------------------------------------------
D |--------------------------------------------------------------------------------
A |----7-7-7-5--7-7-7-5--7-7-7-5--3-3-3-3--------------------------------
E |--------------------------------------------------------------------------------

CHORUS
G I---------------------------------------------------------------------------
D |----------------------------------------------------------------------------
A I----7-7-7-7------------------------10--9--------------------------------
E |-------------7-7-7-7---8-8-8-8-----------------------------------------

G |---------------------------------------------------------------------------
D |---------------------------------------------------------------------------
A |----7-7-7-7----------------------------5-5-5-5------------------------
E |-------------7-7-7-7---8-8-8-8----------------------------------------

OUTRO
G I------------------------------------------------------------------------
D |------------------------------------------------------------------------
A |----7-7-5-7-----------------------------------------------------------
E |------------------------------------------------------------------------

green day minority tabs

I can't find the Green Day's Minority guitar tabs if some one would send them to me that would be cool

Re: green day minority tabs

I've tabbed it and posted it on
http://listen.to/gd_midis

Re: green day minority tabs

By the way does anybody have a GOOD SOLO tab for GreenDay - Knowledge?

Re: green day minority tabs

you'll never learn it of a tab
get sum1 to show you if u cant i got a prrty gud tab from harmonycentral.com

I NEED TO FIND BASS TABS FOR THE GET UP KIDS "FOUR MINUTE MILE"

hey if you know of anyplace to find bass tabs for the get up kids i apperciate it. i'm in a punk band staring up and need more songs for
a gig.

thanks

sober

Good Charlotte album tabs

songs 13 and the hidden song. I need those tabs asap please :)

Post new comment

The content of this field is kept private and will not be shown publicly.
CAPTCHA
This question is for testing whether you are a human visitor and to prevent automated spam submissions. Do not include any spaces in your answer.
Image CAPTCHA
Copy the characters (respecting upper/lower case) from the image.

Contact | Advertise | Contents | Privacy Policy | Forum

This site is published by Hitsquad Pty Ltd. Copyright © 1999 - 2017 , All Rights Reserved.