Punk & SKA Tabs From JamSpot

Punk & SKA Tabs From JamSpot

Punk and Ska tabs for guitar and bass.

We've got a lot of good punk & ska guitar & bass tabs. Please visit if your lookin for some of your favorite underground or mainstream punk & ska band's tabs.

Comment viewing options

Select your preferred way to display the comments and click "Save settings" to activate your changes.

Re: looking for AFI guitar tabs

: I am looking for Halloween and i dont wanna fuck you by AFI in tab form please

Re: looking for AFI guitar tabs

: I am looking for 'Malleus Maleficarum' by AFI in tab form please

Re: looking for AFI guitar tabs

: I am looking for of greetings and goodbyes by AFI in tab form please

Re: looking for AFI guitar tabs

: I am looking for 'God called in sick today' by AFI in tab form please

just go to : www.mxtabs.net

it s a very good site with very much songs of AFI

Re: looking for AFI guitar tabs

: : I am looking for 'God called in sick today', and 'Morning Star' by AFI in tab form please

Re: looking for AFI guitar tabs

: I am looking for 'God called in sick today' by AFI in tab form please e-mail me them if you have them

Re: looking for AFI guitar tabs

i'm looking for 'god called in sick today' and 'morning star' guitar tabs.. email them to me if you find them please

Re: looking for AFI guitar tabs

: : I am looking for 'God called in sick today','6 to 8'and,'mornigstar' by AFI in tab form and or power cord form. please e-mail me them if you have them.

Re: looking for AFI guitar tabs

: : I am looking for 'God called in sick today','6 to 8'and,'mornigstar' by AFI in tab form please e-mail me them if you have them.

Re: looking for AFI guitar tabs

: : I am looking for 6 to 8 by AFI in tab form please e-mail me them if you have them

Re: looking for AFI guitar tabs

I need "days of the phoenix"

Re: looking for AFI guitar tabs

: I need "days of the phoenix"
I want to see if anyone can find the music for the violin on "morningstar"

i have the tab

i dont have an e-mail address but i tabed it

i have the tab

i tabed the days of the phoenix if u want it my s/n name for aim is panteramanboy

Send me NOFX Tabs

----

Re: Send me NOFX Tabs

: ---- k

Re: Send me NOFX Tabs

: ----

Re: Send me NOFX Tabs

: : ----

answers for nofx

: : ----go to new and improved nofx tabs , get it with

with yahoo. they everytabs by nofx

get me the tab

please get me the tab for mxpx´s song popeye the sailor man

strung out tab

i need exhumation of virgina madison by strung out!!!!

Re: strung out tab

: i need mind of my own guitar tab by strung out!!!!

thanx

I need misfit tabs!!!!!!!!!!!!!!!!!!!!!!!!!!!!!

I need misfits tabs for the new "Famous Monsters" cd. I have gotten a few but not nearly enough. Even if you know of a website that has them, please let me know. Thanx for what you can do!!!!!!

Misfit tabs.

don't know how old this is but check out this site. w1.131.telia.com/~u13108580/misfits or do a yahoo search and type in Misfits song book and pick the first or it's the 3rd choice.

guitar tabs for saves the day?

I need guitar tabs for any song by saves the day,on their"through being cool"album!!!Thanx!!!

Re: guitar tabs for saves the day?

-------------------------------------------------------------------------------
HOLLY HOX, FORGET ME NOTX - Saves The Day
-------------------------------------------------------------------------------

By:m1j0y3korn@aol.com

e|-0-------------------------------------------------------------------------|
B|-0-------------------------------------------------------------------------|
G|-0-----------4-4-4-4-6-6-6-9-9-9-------------------------------------------|
D|-0-----------4-4-4-4-6-6-6-9-9-9-------------------------------------------|
A|-0-----------2-2-2-2-4-4-4-7-7-7-------------------------------------------|
E|-0-------------------------------------------------------------------------|

let ring
e|---------------------------------------------------------------------------|
B|---------------------------------------------------------------------------|
G|--11-11-11-11-13-11-9-9-9-9-11-9-8-8-8-8-9-8-4-4-4-4-----------------------|
D|---------------------------------------------------------------------------|
A|--9--9--9--9--11-9--7-7-7-7-9--7-6-6-6-6-7-6-2-2-2-2-----------------------|
E|---------------------------------------------------------------------------|

2nd Guitar
e|---------------------------------------------------------------------------|
B|---------------------------------------------------------------------------|
G|--4-4-4-4-4-4-6-6-6-6-6-6--------------------------------------------------|
D|--4-4-4-4-4-4-6-6-6-6-6-6-2-2-2-2-2-2--------------------------------------|
A|--2-2-2-2-2-2-4-4-4-4-4-4-2-2-2-2-2-2--------------------------------------|
E|--------------------------0-0-0-0-0-0--------------------------------------|

verse x 4
e|---------------------------------------------------------------------------|
B|---------------------------------------------------------------------------|
G|-------------------------------------------------8-9-11-9------------------|
D|-----------------2-2-2-2-2-2-2-2-4-4-4-4-4-4-4-4---------------------------|
A|-6-6-6-6-6-6-6-6-2-2-2-2-2-2-2-2-4-4-4-4-4-4-4-4-6-7-9--7------------------|
E|-4-4-4-4-4-4-4-4-0-0-0-0-0-0-0-0-2-2-2-2-2-2-2-2---------------------------|
p. m.------------------------------------------

e|---------------------------------------------------------------------------|
B|---------------------------------------------------------------------------|
G|---------------------------------------------------------------------------|
D|---------------------------------------------------------------------------|
A|6-6-6-6-6-6-6-6-2-2-2-2-2-2-2-2-4-4-4-4-4-4-4-4-2-2-2-2-2-2-2-2------------|
E|4-4-4-4-4-4-4-4-0-0-0-0-0-0-0-0-2-2-2-2-2-2-2-2-0-0-0-0-0-0-0-0------------|
p.m.-----------------------------------------------------------

e|---------------------------------------------------------------------------|
B|--------------------------

Re: guitar tabs for saves the day?

: I need guitar tabs for any song by saves the day,on their"through being cool"album!!!Thanx!!!

Bass and Guitar tabs for saves the day!!!!!!!!

I NEED !!!!!!!!! BASS and GUitar tabs fo the album "stay wht u are" thanx!!!!!!!!!!!

-starla-

Re: guitar tabs for saves the day?

I have been looking everywhere to find the chords and lyrics to Three Miles Down on "cant slow down" album. Thanks

Re: guitar tabs for saves the day?

: : I need guitar tabs for any song by saves the day,on their"through being cool"album!!!Thanx!!!

Goto www.punkhardcore.com

any one know were to find old school hardcore tabs

i cant find any of the shit i need

no fun at all !!TABS!!

I Search for no fun at all tabs the Song is: Celestial Q&A I'm sorry, but I can't find it anywhere on the web.

Please Send me an mail :-)

Re: no fun at all !!TABS!!

: I Search for no fun at all tabs the Song is: master celebrator and out of bounds .
I'm sorry, but I can't find it anywhere on the web.

: Please Send me an mail :-)

Re: no fun at all !!TABS!!

: : I Search for no fun at all tabs the Song is: master celebrator .
: I'm sorry, but I can't find it anywhere on the web.

: : Please Send me an mail :-)

Randy tab

I need the tab of the song ``Itch you can't scratch`` from Randy

goldfinger tabs for answers

i need the tabs to answers by goldfinger email me at npelloso@earthlink.net if you have any info please
\

bad religion bass tabs

Hey anyone who can send me any bad relaigions bass tabs, i would greatly appreciate it. If any guys wanna chat with me i am a 15 yr old female from raleigh NC. Blonde, 5'5' 120 lbs and nice body!!!

Thank ya

Re: bad religion bass tabs

hello, how i found you????
i have bad religion bass tabs for you

Re: bad religion bass tabs

: Hey anyone who can send me any bad relaigions bass tabs, i would greatly appreciate it. If any guys wanna chat with me i am a 15 yr old female from raleigh NC. Blonde, 5'5' 120 lbs and nice body!!!

: Thank ya

Re: bad religion bass tabs

go to tabcrawler.com

: : Thank ya

The Berzerker Tabs

Does anyone have guitar or bass tab from the song "Forever"? Or does anyone know a site that could have it.
I would be very grateful for any response.

Re: The Berzerker Tabs

kill yourself.

Re: The Berzerker Tabs

go to www.theberzerker.com and get the forever tabs there

that shouldve been the first place you looked

looking for some hard to find saves the day tabs

please help find some saves the day tabs (through being cool)

I need impossibles tabs

I cant find impossibles tabs anywhere except one site if anyone knows where to get them e-mail me

Re: I need impossibles tabs

: I cant find impossibles tabs anywhere except one site if anyone knows where to get them e-mail me

Re: I need impossibles tabs

listen, this is my favorite band,but i can't fnd their tabs anywhere. peae notify me of their whereabouts

tabs

can u get me the tabs for the band fenix tx the song is called flight 601

bosstones bass tab for toxic toast

anyone have the bosstones song toxic toast for bass?

Post new comment

The content of this field is kept private and will not be shown publicly.
CAPTCHA
This question is for testing whether you are a human visitor and to prevent automated spam submissions. Do not include any spaces in your answer.
Image CAPTCHA
Copy the characters (respecting upper/lower case) from the image.

Contact | Contents | Privacy Policy | Forum

This site is published by Hitsquad Pty Ltd. Copyright © 1999 - 2017 , All Rights Reserved.