Hindi Songs Bass Guitar cords

Posted by nash on Mon, 10/13/03 - 01:57:24.

Hello

I am a bass player playing Hinds film songs. I am looking for Bass Guitar Cords for Hindi Film songs. I would appreciate your help sending me information where I can get the cords.

Thanks In advance

Nash

Comment viewing options

Select your preferred way to display the comments and click "Save settings" to activate your changes.

Re: Hindi Songs Bass Guitar cords

hey,

well iam looking for partyboy of Jackass bass cords. or if you cant find any well i want some blink 182. like girl at the rock show, first date, any other song.

that is if you can and thank-you so much

sincerely: Laura

needed of tab

hello
i need Kataa laghaa guitar cords with lyrics .
i have some other songs cords . email me please
dsl666@usa.net
ashek

Re: Hindi Songs Bass Guitar cords

: Hello

: I am a bass player playing Hinds film songs. I am looking for Bass Guitar Cords for Hindi Film songs. I would appreciate your help sending me information where I can get the cords.

: Thanks In advance

: Nash

Re: Hindi Songs Bass Guitar cords

: : Hello

: : I am a rethym player playing Hinds film songs. I am looking for rethym Guitar Cords for Hindi Film songs. I would appreciate your help sending me information where I can get the cords.

: : Thanks In advance

: : Sanjeev

Re: Hindi Songs Bass Guitar cords

: : : Hello

: : : I am a rethym player playing Hinds film songs. I am looking for rethym Guitar Cords for Hindi Film songs. I would appreciate your help sending me information where I can get the cords.

: : : Thanks In advance

: : : hsasan

Re: Hindi Songs Bass Guitar cords

: Hello

: I am a bass player playing Hinds film songs. I am looking for Bass Guitar Cords for Hindi Film songs. I would appreciate your help sending me information where I can get the cords.

: Thanks In advance

: steve

Hindi Songs tabs

: Hello

i am a lead guitar player i want tabs of some good hindi songs

: Thanks In advance

:tapas

Re: Hindi Songs tabs

: : Hello

: i am a lead guitar player i want tabs of some good hindi songs

: Jadoo teri nazar (DARR)
: : Thanks In advance

: :raviraj

Re: Hindi Songs tabs

Hi
I need the guitar tabs for the song from film Darr:

"Jadu Teri Nazar"...
Will Really appreciate.....

jaadu teri ye nazar

==============================

Intro:
========
e----------------------------------------------------------------------
B----------------------------------------------------------------------
G-----6-6-6-6-6-6-6....------4-6-4-------------------------------------
D---4------------------------------7-6---------------------------------
A----------------------------------------------------------------------
E----------------------------------------------------------------------

e----------------------------------------------------------------------
B----------------------------------------------------------------------
G-----4-4-4-4-4-4-4-...-------4----------------------------------------
D---------------------------7---7-6-4----------------------------------
A---7------------------------------------------------------------------
E----------------------------------------------------------------------

e----------------------------------------------------------------------
B----------------------------------------------------------------------
G-----6-6-6--6s9--9-9-6-6----------------------------------------------
D---4---------------------7-7-6-6--------------------------------------
A----------------------------------------------------------------------
E----------------------------------------------------------------------

e----------------------------------------------------------------------
B----------------------------------------------------------------------
G-----4-4-4-4-4-4-4-...-------4----------------------------------------
D---------------------------7---7-6-4----------------------------------
A---7------------------------------------------------------------------
E----------------------------------------------------------------------

Mukhda
=========
e-----9-9-9-9-9-9....---7-9-7------------------------------------------
B---7-------------------------10-9-------------------------------------
G----------------------------------------------------------------------
D----------------------------------------------------------------------
A----------------------------------------------------------------------
E----------------------------------------------------------------------
   jaadu   teri nazar

e-----7-7-7-7-7-7...------7--------------------------------------------
B----------------------10---10-9-7-------------------------------------
G---9------------------------------------------------------------------
D----------------------------------------------------------------------
A----------------------------------------------------------------------
E----------------------------------------------------------------------
  khushbu   tera badan

e-----9-9-9-9s12-------12-7--------------------------------------------
B---7------------------------12-10-9-----------------------------------
G----------------------------------------------------------------------
D----------------------------------------------------------------------
A----------------------------------------------------------------------
E----------------------------------------------------------------------
   jaadu   teri nazar

e-----7-7-7-7-7-7...------7--------------------------------------------
B----------------------10---10-9-7---------9-7-------------------------
G---9------------------------------------------9-7---------------------
D----------------------------------------------------------------------
A----------------------------------------------------------------------
E----------------------------------------------------------------------
    khushbu   tera badan

e----------------------------------------------------------------------
B-----10-9-----------9-7-----------------------------------------------
G---9----------7--7----------------------------------------------------
D----------------------------------------------------------------------
A----------------------------------------------------------------------
E----------------------------------------------------------------------
 Tu Haan Kar  Ya Naa Kar [Repeat]

e------10-10----12-10-9-------10-10----12-10-9-------------------------
B--7-7--------------------7-7------------------------------------------
G----------------------------------------------------------------------
D----------------------------------------------------------------------
A----------------------------------------------------------------------
E----------------------------------------------------------------------
 Tu Hai Meri Kiran  Tu Hai Meri Kiran

Music 1
========

e----9-7--9-7-7-------7------------------7-----------------------------
B----------------10-9-----7-7-7---7-9-10-------------------------------
G----------------------------------------------------------------------
D----------------------------------------------------------------------
A----------------------------------------------------------------------
E----------------------------------------------------------------------

e---12-10-12-10-10---9--7-10----10-9-7---7-9-9-------------------------
B-------------------------------------10-------------------------------
G----------------------------------------------------------------------
D----------------------------------------------------------------------
A----------------------------------------------------------------------
E----------------------------------------------------------------------

e----------------------------------------------------------------------
B----------------------------------------------------------------------
G-----------4-7--------------------------------------------------------
D-----4-6-7------------------------------------------------------------
A---7------------------------------------------------------------------
E----------------------------------------------------------------------

e----------------------------------------------------------------------
B----------------------------------------------------------------------
G---6-4--6-4-4-------4------------------4------------------------------
D----------------7-6-------4-4-4--4-6-7--------------------------------
A----------------------------------------------------------------------
E----------------------------------------------------------------------

e----------------------------------------------------------------------
B---5----5-------------------------------------------------------------
G-----7----7-7--6-4-7-------------4-6-6--------------------------------
D-------------------------7-7-7-7--------------------------------------
A----------------------------------------------------------------------
E----------------------------------------------------------------------

Stanza 1
=========

e------7---------------------------------------------------------------
B---10---10-----7------7-----7-----------------------------------------
G-------------9---9------9-7-------------------------------------------
D----------------------------------------------------------------------
A----------------------------------------------------------------------
E----------------------------------------------------------------------
Faasle  Aur  Kam  Ho Rahen Hain

e------10-10----12-10-9-----7----7-------------------------------------
B--7-7------------------------10--10-----------------------------------
G----------------------------------------------------------------------
D----------------------------------------------------------------------
A----------------------------------------------------------------------
E----------------------------------------------------------------------
Door  Se  Pas Hum    Ho Rahen Hain [Repeate above section]

e---10-12-10----7-9-7---7----7-9---------------------------------------
B-------------------------10-------------------------------------------
G----------------------------------------------------------------------
D----------------------------------------------------------------------
A----------------------------------------------------------------------
E----------------------------------------------------------------------
  Maang Loonga  Tujhe Asaman Se

e---10-9-7----9-7------------------------------------------------------
B-----------------10-----9-7--9-7----------9-7-------------------------
G----------------------------------------------9-7---------------------
D----------------------------------------------------------------------
A----------------------------------------------------------------------
E----------------------------------------------------------------------
Chheen Loonga Tujhe     Is Jahaan Se

e----------------------------------------------------------------------
B-----10-9-----------9-7-----------------------------------------------
G---9----------7--7----------------------------------------------------
D----------------------------------------------------------------------
A----------------------------------------------------------------------
E----------------------------------------------------------------------
 Tu Haan Kar  Ya Naa Kar [Repeat]

e------10-10----12-10-9-------10-10----12-10-9-------------------------
B--7-7--------------------7-7------------------------------------------
G----------------------------------------------------------------------
D----------------------------------------------------------------------
A----------------------------------------------------------------------
E----------------------------------------------------------------------
 Tu Hai Meri Kiran  Tu Hai Meri Kiran

Repeate Music 1
Repeate Mukhda
================

Re: Hindi Songs Bass Guitar cords

: Hello

: I am a bass player playing Hinds film songs. I am looking for Bass Guitar Cords for Hindi Film songs. I would appreciate your help sending me information where I can get the cords.

: Thanks In advance

: Nash

Re: Hindi Songs Bass Guitar cords

: : Hello

: : I am a bass player playing Hinds film songs. I am looking for Bass Guitar Cords for Hindi Film songs. I would appreciate your help sending me information where I can get the cords.

: : Thanks In advance

: : Nash

Re: Hindi Songs Bass Guitar cords

: : : Hello

: : : I am a bass player playing Hinds film songs. I am looking for Bass Guitar Cords for Hindi Film songs. I would appreciate your help sending me information where I can get the cords.

: : : Thanks In advance

: : : Nash

Re: Hindi Songs Bass Guitar cords

: : : : Hello

: : : : I am a bass player playing Hinds film songs. I am looking for Bass Guitar Cords for Hindi Film songs and sa re ga ma scelas on defrant positinons I would appreciate your help sending me information where I can get the cords.

: : : : Thanks In advance

: : : : Kiran

Re: Hindi Songs Bass Guitar cords

: Hello

: hello sir i need some new hindi songs guitar cords like kuch to hua hai. pls help me

Post new comment

The content of this field is kept private and will not be shown publicly.
CAPTCHA
This question is for testing whether you are a human visitor and to prevent automated spam submissions. Do not include any spaces in your answer.
Image CAPTCHA
Copy the characters (respecting upper/lower case) from the image.

Contact | Contents | Privacy Policy | Forum

This site is published by Hitsquad Pty Ltd. Copyright © 1999 - 2017 , All Rights Reserved.