The Pentatonic-Scale - Pattern 3

by Dirk Hagemann
http://www.blueslessons.net

Click here to read part 1
Click here to read part 2

3rd Pattern

Like the first patterns we stay in the keytone A. And the third
pattern on the fingerboard looks like this:

 9   10  11  12   13
|---|-x-|---|-x-|---|
|---|-x-|---|---|-x-|
|-x-|---|---|-x-|---|
|---|-x-|---|-x-|---|
|---|-x-|---|-x-|---|
|---|-x-|---|-x-|---|

Practise: Play the pattern from the the high E-string to the low E-string and back

e |------------------------------10-12-|-12-10------------------------------|
H |------------------------10-13-------|-------13-10------------------------|
G |-------------------9-12-------------|-------------12-9-------------------|
D |-------------10-12------------------|------------------12-10-------------|
A |-------10-12------------------------|------------------------12-10-------|
E |-10-12------------------------------|------------------------------12-10-|

Now you know the first three patterns. Practise them, until you can
play them easily and smoothly!

Practise: Move the patterns on the fingerboard into other keys!

Now we take a look how the patterns can be connected on the fingerboard:

1 = Notes from Pattern 1
2 = Notes from Pattern 2
1/2 = common notes from Pattern 1 and 2.
3 = Notes from Pattern 3
2/3 = common notes from Pattern 2 and 3

    5   6   7   8   9  10  11  12  13
e |-1-|---|---|1/2|---|2/3|---|-3-|---|
B |-1-|---|---|1/2|---|2/3|---|---|-3-|
G |-1-|---|1/2|---|2/3|---|---|-3-|---|
D |-1-|---|1/2|---|---|2/3|---|-3-|---|
A |-1-|---|1/2|---|---|2/3|---|-3-|---|
E |-1-|---|---|1/2|---|2/3|---|-3-|---|

Practise both patterns alone and in connection on the fingerboard!

For more exercises and GuitarPro files for this lesson visit:
www.blueslessons.net

From the 12-Bar-Blues, the Shuffle Rythm and the Blues Turnarounds to
the Blues Scale, from Lead Guitar techniques to Slide guitar lessons
and much more. For each Lesson we have images, GuitarPro files and
midis to listen to. Or download all lesson & files as an ebook!
PLUS: mp3 Blues Backing Tracks/Jam Tracks and Ebooks!

Make sure you check back for part 4 next week!

Post new comment

The content of this field is kept private and will not be shown publicly.
CAPTCHA
This question is for testing whether you are a human visitor and to prevent automated spam submissions. Do not include any spaces in your answer.
Image CAPTCHA
Copy the characters (respecting upper/lower case) from the image.

Contact | Advertise | Contents | Privacy Policy | Forum

This site is published by Hitsquad Pty Ltd. Copyright © 1999 - 2017 , All Rights Reserved.