Easy Pentatonic Licks - In the key of A

by Dirk Hagemann
www.blueslessons.net


     Lick 1                                                               
E||---------5-----------------------|------------------------|-----------|
B||----------------8------7------5--|------------------------|-----------|
G||--7b--------7b-----7b-----7b-----|--7b----7b--5-----------|-----------|
D||---------------------------------|---------------7--------|-----------|
A||---------------------------------|------------------------|-----------|
E||---------------------------------|------------------------|-----------|



  Lick 2                                                               
------------5h--8--8b--5~---------|-----------------------------|-----|
--5h-----8-----------------8p--5--|-----------------------------|-----|
----------------------------------|--7--5-----------------------|-----|
----------------------------------|--------7p--5----------------|-----|
----------------------------------|---------------7--5----------|-----|
----------------------------------|---------------------8p--5~--|-----|


  Lick 3                                                        
---------8p--5-----5--8p--5--|-----5--8p--5--------------|-----|
--5-------------8------------|--8------------8--5--------|-----|
-----------------------------|---------------------7--5--|-----|
-----------------------------|---------------------------|-----|
-----------------------------|---------------------------|-----|
-----------------------------|---------------------------|-----|


  Lick 4                                                        
-------------------------------|--8--10--10b--8--10--12--8--5--|
-----------------------8h--10--|-------------------------------|
--5------7p--5h--7--9----------|-------------------------------|
-------------------------------|-------------------------------|
-------------------------------|-------------------------------|
-------------------------------|-------------------------------|



                      Lick 5                             
-------------------|---------5--------5-----------------|
-------------------|---------5--7--7--5--------------7--|
-------------------|---------------7-----7--5--5-----7--|
-------------------|------------------------------7-----|
-------------------|------------------------------------|
-------------------|------------------------------------|



                                        Lick 6                             
-------------------------|-----------|----------------8--10b--10--8b------|
-------------------------|-----------|---------8--10------------------10--|
--5b---------------------|-----------|--9---------------------------------|
------7------------------|-----------|------------------------------------|
---------7--7~--L--------|-----------|------------------------------------|
-------------------------|-----------|------------------------------------|



--------------------------|---------------------------|-------|
--L----10--8-----8--------|---------------------------|-------|
--------------9-----9--7--|---------------------------|-------|
--------------------------|--10b--7-------------------|-------|
--------------------------|----------10--7--L---------|-------|
--------------------------|---------------------------|-------|



  Lick 7 - Easy Turnaround                                   
--5------------------------5--5--5--5--5--5--5--5--5--5--5--|
--5------------------------5--5--5--5--5--5--5--5--5--5--5--|
---------------------------------------7--7--7--7--7--7--7--|
------------------------------------------------------------|
------------------------------------------------------------|
------------------------------------------------------------|


----5-----------------|-----------||
----5-----------------|-----------||
--5g6-----------------|-----------||
----------------------|-----------||
----------------------|-----------||
----------------------|-----------||

For more exercises and GuitarPro files for this lesson visit:
www.blueslessons.net

From the 12-Bar-Blues, the Shuffle Rythm and the Blues Turnarounds to
the Blues Scale, from Lead Guitar techniques to Slide guitar lessons
and much more. For each Lesson we have images, GuitarPro files and
midis to listen to. Or download all lesson & files as an ebook!
PLUS: mp3 Blues Backing Tracks/Jam Tracks and Ebooks!

Read Medium Pentatonic Licks - In the key of A at http://guitarsite.com/hotlicks/viewtopic.php?t=1983

Post new comment

The content of this field is kept private and will not be shown publicly.
CAPTCHA
This question is for testing whether you are a human visitor and to prevent automated spam submissions. Do not include any spaces in your answer.
Image CAPTCHA
Copy the characters (respecting upper/lower case) from the image.

Contact | Contents | Privacy Policy | Forum

This site is published by Hitsquad Pty Ltd. Copyright © 1999 - 2017 , All Rights Reserved.