GuitarSite.com
Sor Guitar Tablature

GuitarSite.com : Tablature : Classical : Sor

#----------------------------------PLEASE NOTE---------------------------------#
#This file is the author's own work and represents their interpretation of the #
#song. You may only use this file for private study, scholarship, or research. #
#------------------------------------------------------------------------------##

From: tgannon@charlie.usd.edu (spideir)

ANDANTE (Opus 31 No. 1) - Fernando Sor (1778-1839)
[tabbed for guitar: tcg]

Key of C, 3/4


|---||--0==----|--------0--|--3--1-----|------------|-----------|-----------|
|---||------1--|-----1-----|--------3--|--0====-----|--------1--|--1--0--1--|
|-0-||o--------|--0--------|-----------|--------0---|--0====----|-----------|
|---||o--------|--2======--|--0======--|--3======---|--2======--|--2--0-----|
|---||--3====--|-----------|-----------|------------|-----------|--------3--|
|---||---------|-----------|-----------|------------|-----------|-----------|
 pu     1 2 3     1  2  3  [etc.]         1  2  3      1  2  3
 
 
|------------|------------|--0===------|--------0---|--3--2--1--|-----------|
|--3=======--|------------|--------1---|-----1------|-----------|--3--0-----|
|-----0---0--|--0--0--0---|------------|--0---------|-----------|--------0--|
|------------|------------|------------|--2-======--|--0======--|--3======--|
|--2=========|======------|--3=======--|------------|-----------|-----------|
|------------|------------|------------|------------|-----------|-----------|
                             1  2  3
 
|---------0--|------------|---------0--|-----------||--1===--1--|--0-----0--|
|--1====-----|------3--0--|--1====-----|--1-\------||-----------|-----------|
|------0-----|--2------0--|---------0--|----/--0--o||-----0===--|-----0===--|
|--2---------|--3====-----|------2-----|--2-\-----o||--0======--|-----------|
|---------3--|------------|--3---------|----/------||-----------|--3======--|
|------------|------------|------------|-----------||-----------|-----------|
 
 
|------------|------------|------------|---------0--|-----------|-----------|
|--3------3--|--1------1--|--0====--3--|--1====-----|--3======--|-----------|
|------0===--|------0===--|------0===--|------0===--|-----0--0--|--0--0--0--|
|--3=======--|--2=======--|--0====--3--|--2====-----|-----------|-----------|
|------------|------------|------------|---------3--|--2========|======-----|
|------------|------------|------------|------------|-----------|-----------|
 
 
|--0====-----|---------0--|--3--2--1---|------------|-----0-----|-----------|
|--------1---|------1-----|------------|--3---0-----|--1-----1--|-----3--0--|
|------------|--0---------|------------|---------0--|-----------|--2-----0--|
|------------|--2=======--|--0======---|--3=======--|--2-----2--|--3===-----|
|--3======---|------------|------------|------------|-----3-----|-----------|
|------------|------------|------------|------------|-----------|-----------|
   1  2  3
                        *
|------------|--------------||
|--1=========|===---\-------||    *=only with repeat
|---------0--|------/--(0)-o||
|------2-----|------\------o||
|--3---------|--3---/-------||
|------------|--------------||

*===*===*===*===*===*===*===*===*===*===*===*===*===*===*===*===*===*===*
| Thomas C. Gannon | tgannon@charlie.usd.edu | U of SoDak (Vermillion)  |
* ------------------------------- _-^-_ ------------------------------- *
| "--If I decide to practice a   / o )=\    slight movement from right  |
*  to left . . . or from left   {   /===}    to right . . . it's        *
|     nobody's business but my   \ (=o=/    own." (_A_Day_for_Eeyore_)  |
*===*===*===*===*===*===*===*===* ^-_=^ *===*===*===*===*===*===*===*===*



GuitarSite.com : Tablature : Classical : Sor


Copyright © Hitsquad.com Pty Ltd 1999 - 2013, All Rights Reserved. This site is published by HITSQUAD
Click here for our Privacy Policy | Click here for Advertising Details