Guitar Discussion Forum Archive - October, 2002



Comment viewing options

Select your preferred way to display the comments and click "Save settings" to activate your changes.

Re: guitar boogie

: Please let me know where I can get a tablature book on Arthur Smith guitar boogie.
: Thank you,

Re: guitar boogie

: i'm looking for the tablature of Arthur Smith guitar boogie.
: Thank you, gracias, merci,...

Voila Arthur Smith Guitar boogie Tablature
Guitar Boogie Arthur Smith

E||-----------------------------|-----------------------------|
B||-----------------------------|-----------------------------|
G||-----------------------------|-----------------------------|
D||-----------------------------|--2--2-----------------------|
A||-----------------2--2--4--4--|--------4--4--2--2--------2--|
E||--0--0--3--4--4--------------|--------------------3--4-----|

-----------------------------|-----------------------------|
-----------------------------|-----------------------------|
-----------------------------|-----------------------------|
-----------------------------|--2--2-----------------------|
-----------------2--2--4--4--|--------4--4--2--2-----------|
--0--0--3--4--4--------------|--------------------3--4--4--|

-----------------------------|-------------------------|
-----------------------------|-------------------------|
-----------------------------|-------------------------|
-----------------2--2--4--2--|--5----4--5--4--2-----2--|
--0--0--3--4--4--------------|-------------------4-----|
-----------------------------|-------------------------|

-----------------------------|-----------------------------|
-----------------------------|-----------------------------|
-----------------------------|-----------------------------|
-----------------------------|--2--2-----------------------|
-----------------2--2--4--4--|--------4--4--2--2-----------|
--0--0--3--4--4--------------|--------------------3--4--4--|

----------------------------|------------------------|
----------------------------|------------------------|
----------------------------|------------------------|
----------------------------|------------------------|
--2--2--4--2--5----4--5--4--|--2--0----0-----2-------|
----------------------------|-------------4-------4--|

-----------------------------|------------------------|
-----------------------------|------------------------|
-----------------------------|------------------------|
--------------------------2--|-------2-------2--------|
-----------------2--2--4-----|----4-----4-------4--0--|
--0--0--3--4--4--------------|------------------------|

--------------------------------|--------------------------------|
--------------------------------|--------------------------------|
--------------------------------|--------------------------------|
--------------------------------|--------------------------------|
--------2--3--4--------2--3--4--|--------2--3--4--------2--3--4--|
--0--0-----------0--0-----------|--0--0-----------0--0-----------|

--------------------------------|--------------------------------|
--------------------------------|--------------------------------|
--------------------------------|--------------------------------|
--------------------------------|--------------------------------|
--------2--3--4--------2--3--4--|--------2--3--4--------2--3--4--|
--0--0-----------0--0-----------|--0--0-----------0--0-----------|

--------------------------------|--------------------------------|
--------------------------------|--------------------------------|
--------------------------------|--------------------------------|
--------------------------------|--------------------------------|
--------2--3--4--------2--3--4--|--------2--3--4--------2--3--4--|
--0--0-----------0--0-----------|--0--0-----------0--0-----------|

--------------------------------|--------------------------------|
--------------------------------|--------------------------------|
--------------------------------|--------------------------------|
--------------------------------|--------------------------------|
--------2--3--4--------2--3--4--|--------2--3--4--------2--3--4--|
--0--0-----------0--0-----------|--0--0-----------0--0-----------|

--------------------------------|--------------------------------|
--------------------------------|--------------------------------|
--------------------------------|--------------------------------|
--------2--3--4--------2--3--4--|--------2--3--4--------2--3--4--|
--2--2-----------2--2-----------|--2--2-----------2--2-----------|
--------------------------------|--------------------------------|

--------------------------------|--------------------12------|
--------------------------------|----------------------------|
--------------------------------|----------------------------|
--------------------------------|----------------------------|
--------2--3--4--------2--3--4--|--------2--3--4-------------|
--0--0-----------0--0-----------|--0--0-----------0/---------|

--12----12----12------------|----------------------------------|
----------------------------|--12------------------------------|
--------------------12--13--|------15--14--12--13--------------|
----------------------------|----------------------14--11--14--|
----------------------------|----------------------------------|
----------------------------|----------------------------------|

--------------------------------|--12--15~---14----12--------|
------------12--14--13--12--14--|------------------------13/-|
----12--13----------------------|----------------------------|
--------------------------------|----------------------------|
--------------------------------|----------------------------|
--------------------------------|----------------------------|

------12------12------12------12--|------12------12------12------12--|
--14------14------14------14------|--14------14------14------14------|
----------------------------------|----------------------------------|
----------------------------------|----------------------------------|
----------------------------------|----------------------------------|
----------------------------------|----------------------------------|

--------12--------------------|--------------------------------|
----14--------14--12----------|--12------------------12--------|
----------------------12--13--|------15--14--12--13--------13--|
------------------------------|--------------------------------|
------------------------------|--------------------------------|
------------------------------|--------------------------------|

----------------------------|----------------------------------|
--12----12----12------------|--12------------------------------|
--------------------12--13--|------15--14--12--13--------------|
----------------------------|----------------------14--11--14--|
----------------------------|----------------------------------|
----------------------------|----------------------------------|

----------------------------12--|----12----12----12------|
------------12--14--13--12------|------------------------|
----12--13----------------------|------------------------|
--------------------------------|------------------------|
--------------------------------|------------------------|
--------------------------------|------------------------|

--7-------6/-7----7----|-----6/-7----7-------6/-|--7----7-------6/-7----|
--8-------8/-9----8----|-----8/-9----8-------8/-|--9----8-------8/-9----|
-------0---------------|--0---------------0-----|------------0----------|
-----------------------|------------------------|-----------------------|
-----------------------|------------------------|-----------------------|
-----------------------|------------------------|-----------------------|

--7-------6/-7----7----|--8/-9------8/-9-----8/-9---|
--8-------8/-9----8----|--9/-10-----9/-10----9/-10--|
-------0---------------|---------0------------------|
-----------------------|----------------------------|
-----------------------|----------------------------|
-----------------------|----------------------------|

-----8--9-----8--9------6--|--7----6--7-----6--7----|--6--7-----6--7--6--7--6--|
-----9--10----9--10-----8--|--9----8--9-----8--9----|--8--9-----8--9--8--9--8--|
--0------------------0-----|-------------0----------|--------0-----------------|
---------------------------|------------------------|--------------------------|
---------------------------|------------------------|--------------------------|
---------------------------|------------------------|--------------------------|

--7----6--5------7----|--7----6--5----5------|--5--7--7-------5--7--7-------|
--9----8--7------9----|--9----8--7----7------|--7--9-----9----7--9-----9----|
----------------------|----------------------|------------------------------|
----------------------|----------------------|------------------------------|
----------------------|----------------------|------------------------------|
----------------------|----------------------|------------------------------|

--5--7--7--7--7----12--------|--12/---9/--------------|-----------------------|
--7--9-----9--9----------12--|-------------12/---9/---|-----------------------|
-----------------------------|------------------------|--9/---6/--------------|
-----------------------------|------------------------|------------9/---6/----|
-----------------------------|------------------------|-----------------------|
-----------------------------|------------------------|--------------------7--|

--------------------------|-----------------------|------12--------12--------|
--------------------------|-----------------------|--14/-------14------------|
--------------------------|-----------------------|--------------------------|
--------------------------|-----------------------|--------------------------|
--7--7--7--7--7--7--7--7--|--7--7--7--7--7/-------|--------------------------|
--------------------------|-----------------------|--------------------------|

--14r---14r-----12--------|--15--12------12--15--12------12--|
--------------------14----|----------14--------------14------|
--------------------------|----------------------------------|
--------------------------|----------------------------------|
--------------------------|----------------------------------|
--------------------------|----------------------------------|

--16----12------------------|--------------------------|
--------------14------------|--12--14------------------|
------------------12----13--|----------------12----13--|
----------------------------|--------------------------|
----------------------------|--------------------------|
----------------------------|--------------------------|

----------------------------------|------------------------------|
--12------------------------------|------------12--14--13--12----|
------15--14--12--13--------------|----12--13--------------------|
----------------------14--11--14--|------------------------------|
----------------------------------|------------------------------|
----------------------------------|------------------------------|

--12--12----12----12-------|----------------------------------|
---------------------------|----------------------------------|
---------------------------|----------------------------------|
---------------------------|--2-2-2-2-2-2-2-2-2-2-2-2-2-2-2-2-|
---------------------------|----------------------------------|
------------------------0--|----------------------------------|

----------------------------------|------------------------|
----------------------------------|----------------5-------|
----------------------------------|---------------------6--|
--2-2-2-2-2-2-2-2-2-2-2-2-2-2-2-2-|--2----4--5--6----------|
----------------------------------|------------------------|
----------------------------------|------------------------|

-----------------------|-------5----5-------------|--7----6----5~-------|
--5----4----3----------|----5------------------5--|---------------------|
-----------------5/-6--|-----------------5/-6-----|---------------------|
-----------------------|--------------------------|---------------------|
-----------------------|--------------------------|---------------------|
-----------------------|--------------------------|---------------------|

----12--------------------|--------------------------|
------------14------------|--12--14--------12--0--0/-|
------------------12--13--|--------------------------|
--------------------------|--------------------------|
--------------------------|--------------------------|
--------------------------|--------------------------|

------------------------------|----------------------------------|
--12--0/-12--0/-12------------|--12------------------------------|
----------------------12--13--|------15--14--12--13--------------|
------------------------------|----------------------14--11--14--|
------------------------------|----------------------------------|
------------------------------|----------------------------------|

----------------------------12--|----12----12----12----0--|
------------12--14--13--12------|-------------------------|
----12--13----------------------|-------------------------|
--------------------------------|-------------------------|
--------------------------------|-------------------------|
--------------------------------|-------------------------|

--12/------------------|--12/------------------|--12/------------------|
-----------------------|-----------------------|-----------------------|
-----------------------|-----------------------|-----------------------|
-----------------------|-----------------------|-----------------------|
-----------------------|-----------------------|-----------------------|
------------12/---0----|------------12/---0----|------------12/---0----|

--12/------------------|-------------5~-------|-----------7--5----------|
-----------------------|----------5-----------|--------5----------------|
-----------------------|----5/-6--------------|--5/-6-------------------|
-----------------------|----------------------|-------------------------|
-----------------------|----------------------|-------------------------|
------------12/---0----|----------------------|-------------------------|

--12------12------------------|----------------7/-----|--7----6----5--------|
------14--------14------------|--12--14/-------9/-----|--9----8----7--------|
----------------------12--13--|-----------------------|---------------------|
------------------------------|-----------------------|---------------------|
------------------------------|-----------------------|---------------------|
------------------------------|-----------------------|---------------------|

--7--6----5----------|------------------------12~-|----------------------|
--9--8----7----------|--------------12--14--------|----------------------|
---------------------|----12/-13------------------|------------12----13--|
---------------------|----------------------------|----------------------|
---------------------|----------------------------|----------------------|
---------------------|----------------------------|----------------------|

------------------------------|------------------------------|
--12------------12------------|--12------------12------------|
--------12--13--------12--13--|--------12--13--------12--13--|
------------------------------|------------------------------|
------------------------------|------------------------------|
------------------------------|------------------------------|

------------------------------|----------------------|
--12------------12------------|--12--14--------------|
--------12--13--------12--13--|----------------------|
------------------------------|----------------------|
------------------------------|----------------------|
------------------------------|----------------------|

----------12----------12----------|--12----------12--------------|
--13--14------13--14------13--14--|------13--14------13--14------|
----------------------------------|------------------------------|
----------------------------------|------------------------------|
----------------------------------|------------------------------|
----------------------------------|------------------------------|

--16--12------12--15--12------12--|--16--12------12--15--12--------|
----------14--------------12--0---|----------14--------------14----|
----------------------------------|--------------------------------|
----------------------------------|--------------------------------|
----------------------------------|--------------------------------|
----------------------------------|--------------------------------|

----------------------------|----------------------------------|
--12----12----12------------|--12------------------------------|
--------------------12--13--|------15--14--12--13--------------|
----------------------------|----------------------14--11--14--|
----------------------------|----------------------------------|
----------------------------|----------------------------------|

--------------------------12--|----12----12----12/------|
----------12--14--12--14------|-------------------------|
----12------------------------|-------------------------|
------------------------------|-------------------------|
------------------------------|-------------------------|
------------------------------|----------------------0--|

-----------------------------|-----------------------------|
-----------------------------|-----------------------------|
-----------------------------|-----------------------------|
-----------------------------|--2--2-----------------------|
-----------------2--2--4--4--|--------4--4--2--2--------2--|
--0--0--3--4--4--------------|--------------------3--4-----|

-----------------------------|-----------------------------|
-----------------------------|-----------------------------|
-----------------------------|-----------------------------|
-----------------------------|--2--2-----------------------|
-----------------2--2--4--4--|--------4--4--2--2-----------|
--0--0--3--4--4--------------|--------------------3--4--4--|

-----------------------------|-------------------------|
-----------------------------|-------------------------|
-----------------------------|-------------------------|
-----------------2--2--4--2--|--5----4--5--4--2-----2--|
--0--0--3--4--4--------------|-------------------4-----|
-----------------------------|-------------------------|

-----------------------------|-----------------------------|
-----------------------------|-----------------------------|
-----------------------------|-----------------------------|
-----------------------------|--2--2-----------------------|
-----------------2--2--4--4--|--------4--4--2--2-----------|
--0--0--3--4--4--------------|--------------------3--4--4--|

---------------------------|----------------------|
---------------------------|----------------------|
---------------------------|----------------------|
---------------------------|----------------------|
--2--4----2--5----4--5--4--|--2--0---------2------|
---------------------------|----------4-----------|

--------------------------------------|-----------------------------|
--------------------------------------|-----------------------------|
--------------------------------------|-----------------------------|
--2--4--2--0--2--0--------------------|-----------------------------|
--------------------4--0--4--2--4--2--|--0--2--0--------------------|
--------------------------------------|-----------4--3--2--0--------|

--0----------------||
--0----------------||
--1----------------||
--2----------------||
--2----------------||
--0----------------||

Re: guitar boogie

: i'm looking for the tablature of Arthur Smith guitar boogie.
merci,...

guitar feedback

Play in band with accordian, mandolin, conga's, guitar, and upright bass. Guitar and bass play thru SWR amplifier, California blond for bass and Strawberry blond for guitar. Guitar is Breedlove. There is feedback from the guitar that does not seem to go away. Play thru a pre-amp and use a volume pedal. Is it just something in how the settings on amp are? Could it be the pick-up and those settings? Is it a comibination? Any input would be welcome. Have tried better cords, better pre-amp.

Re: guitar feedback

: if ur guitar has 5 way switching take the switch off of the bottom and move the switch up, and dont stand close 2 da amp, or if dat dont work then put ur hand over the strings wen ur not playin.

Re: guitar feedback

it's probably your pickups on your guitar or maybe your amp, but yeah, put your fingers over the strings when not playing

Setting individual string action on a Lo Trs Trem

How do you set the action on a lo trs trem, is it possible to adjust each string seperatly or do you have to use the two adjusters which affect all of the strings. Thanks, Chris

Re: Setting individual string action on a Lo Trs Trem

: You are crap and gay
yes... you are crap and fuckin gay too

: How do you set the action on a lo trs trem, is it possible to adjust each string seperatly or do you have to use the two adjusters which affect all of the strings. Thanks, Chris

desperately need Hotel California instrumental plz.

my son 8 yrs old wants to sing HC/eagles in his birthday party but instrumental music not available. plz if any1 has send me. i will be obliged. arun

Re: desperately need Hotel California instrumental plz.

The guitar tab is widely available online and guitar world had a complete transcription a couple of months ago, also any music store would probally have it for a couple of bucks.

: my son 8 yrs old wants to sing HC/eagles in his birthday party but instrumental music not available. plz if any1 has send me. i will be obliged. arun

PS

Forgot, heres a link to some tab for it:

http://www.guitartabs.cc/tabsearch.shtml?query=hotel+california

I couls also scan/send the GW if the above isn't good enough.

: The guitar tab is widely available online and guitar world had a complete transcription a couple of months ago, also any music store would probally have it for a couple of bucks.

:
: : my son 8 yrs old wants to sing HC/eagles in his birthday party but instrumental music not available. plz if any1 has send me. i will be obliged. arun

Re: desperately need Hotel California instrumental plz.

Holy crap me too i'm so focked helpm e out need fockin instrmental by tomo help :(

Re: desperately need Hotel California instrumental plz.

help me crazy ass she devilwoman teacher from hell is going to flunk me unless i find instrumental versiobn for this godforsaken song by tomorrow. I've tried prayer already and God doesn't respond.

punk amp settings

punk amp settings

This popular thread has been given its own page : punk amp settings

live effects with a computer

hi, i have an electro-folk guitar and a hoonteck soundcard. I'd like to know if there is a solution that allowe me to have life effect with my guitar. For now i use cooleditpro to make effects but i need to record first and then to apply the effect...

ty for reading and/or answering.

1975 lesPaul custom

I have played my 1975 LesPaul Custom for 23 years, and I'm just curious bout it's value today. It's in a good condition.

1975 lesPaul custom

I have played my 1975 LesPaul Custom for 23 years, and I'm just curious bout it's value today. It's in a good condition.

Re: 1975 lesPaul custom

Alot depends on how 'good' the condition is, one way I find useful is to go on ebay and search on completed auctions of the same guitar and it gives a pretty good heads up of what they are really going for, you can look up the 'bluebook', and use that as a gauge too.

: I have played my 1975 LesPaul Custom for 23 years, and I'm just curious bout it's value today. It's in a good condition.

Re: 1975 lesPaul custom

Hard to say without seeing the condition. Trend on ebay is $1200 to $1600. That's in good shape. I picked up a mint, white LP Custom for $1400.

Steve Amaker

If you can imagine a perverted, out of shape, Richard Simmons want-to-be, you've got Steve Amaker . . . Can you imagine someone with so little self esteem? You really have to pitty this poor slob.

Re: Steve Amaker

Is simple, who cares ?? posting about or to trolls is just as pitiful, it just adds to the crap... but since this is my last time here I will post to your troll, hope you get the flames you are fishing for and enjoy making this board just that much more crappy.

: If you can imagine a perverted, out of shape, Richard Simmons want-to-be, you've got Steve Amaker . . . Can you imagine someone with so little self esteem? You really have to pitty this poor slob.

Re: Steve Amaker

His (it's) posts are nothing but worthless non-informed, non-information. A total waste of time.

Opinions are like aholes...

And you defintely gots a large one.

Try imagining/posting about guitars/music instead of richard simmons or else people will thik you are gay too.

: If you can imagine a perverted, out of shape, Richard Simmons want-to-be, you've got Steve Amaker . . . Can you imagine someone with so little self esteem? You really have to pitty this poor slob.

Re: Opinions are like aholes...

Oh no, another one!

Re: Opinions are like aholes...

flam back to ya - yes, I agree you are

wasn't that the purpose of your original post ? flaming to get noticed, have fun flaming more but I am done with this thread, you are too boring to even bother to look at next time here. What is pathetic is you can't even keep a decent flame going.

Enjoy YOUR board, I don't like to be around flies.

: Oh no, another one!

Steves great, that the opinion of ----->

!

: If you can imagine a perverted, out of shape, Richard Simmons want-to-be, you've got Steve Amaker . . . Can you imagine someone with so little self esteem? You really have to pitty this poor slob.

Re: Steves great, that the opinion of ----->

Yeah, A great big JERK!

Your name is ----------------->

REMEMBER ???
PLEASE USE YOUR REAL NAME - AHOLE - FOR ALL FURTHER POSTS SO WE KNOW WHIC TROLL YOU ARE.

: Yeah, A great big JERK!

59 bandmaster

Does anybody know how much a '59 Fender Bandmaster
is going for these days?

Re: 59 bandmaster harmonica

i got a harmonica here and like to know what date it came out its in a black leather case with red writing on it.(bandmaster made in german democratic republic).

review for takamine eg560cbs

I have recently purchased a eg560cbs and am looking for reviews from other players who have the same guitar. Looking for opinions on playability, sound and overall quality.

Re: review for takamine eg560cbs

HarmonyCentral.com is the usual place for reviews, but since you already bought it you probally already know everything about it, so leave one for others.

: I have recently purchased a eg560cbs and am looking for reviews from other players who have the same guitar. Looking for opinions on playability, sound and overall quality.

Rg2027

If you know a place in Europe where the Ibanez RG2027 is still available, please contact me via e-mail: kantortamas@freemail.hu Thanx!

Re: Rg2027

I sure don't know, but I hope someone does!

As they say, imitation is the best for of flattery.....

Thank you.

I'am on the road a 2 weeks and people are posting for and about me, I thank you, but I am back and now will resume sharing my wit and wisdom.

PS - I would never live in TX, only 2 things there, and boy ya don't have horns.

: I sure don't know, but I hope someone does!

Virus alert on this site !!!

theres an ad 'confirmation' that pops up here asking to install a 'price comparision' program, it is a VIRUS so do not choose 'yes', also choosing not to install the program will close or hang your browser but it is better than infecting your pc with this crap.

Well I'am outta here, popups I can deal with, but ad tracking and virus crap I don't need.

Epiphone Emperor II Joe Pass model

Any advice: what wood it is made of? Does it really sound better getting older?
Mine is of '99 production year. How long should I wait to get a real cool sound (take it as a joke)?
Greetings from .ru

Re: Epiphone Emperor II Joe Pass model

You are kidding, aren't you?? I sure hope so.

Re: Epiphone Emperor II Joe Pass model

I think they are laminated maple w/spruce top, and don't think 'age' will improve the tone any, I have one and put 57 classics and new tuners on it and it sounded 'pretty decent' then, but I think that is about as good as it'll get, unfortunately they are just middle of the road archtops, I still gig with it though and its held up pretty well. I finally got a 355 about 2 years ago and there is no comparsion.

: Any advice: what wood it is made of? Does it really sound better getting older?
: Mine is of '99 production year. How long should I wait to get a real cool sound (take it as a joke)?
: Greetings from .ru

I was told I need somthing else to besides a big amp. can you help me?

What do you think I need because I no I need a big amp that is loud to but I need somebudy to fix the buz cheap to because it buzes but the strings feel hard to push to. Cord told me what string to use but I doen't no it they are right for my vintage guitar or if I need speacial strings for it because it is so old to. The old wood mite need differant strings because it is very old (1955). Thanks for helping me and let me no it sombudy can fix the buz cheap to.

Question

Can i play a 100 watt combo through a 2x12 cabinet??

Re: Question

: Can i play a 100 watt combo through a 2x12 cabinet??
I honestly don't know what your ability is!

Re: Question

i bet you can't play PFker!

: : Can i play a 100 watt combo through a 2x12 cabinet??
: I honestly don't know what your ability is!

Re: Question

Sure, does the combo have "speaker out"put jacks ?? if not you gotta wire it out yourself.

: Can i play a 100 watt combo through a 2x12 cabinet??

guitar straps???

can anyone please help me with a problem. I was wondering if anyone could tell me who to contact so that I could find out the materials that make a guitar strap. I am a University student doing research and would greatly appreciate any help you could offer me.

thank you.

Re: guitar straps???

leather (animal skin in general, snake, lizard, elephant, seal, elk, etc) and nylon are the most common materials.

: can anyone please help me with a problem. I was wondering if anyone could tell me who to contact so that I could find out the materials that make a guitar strap. I am a University student doing research and would greatly appreciate any help you could offer me.

: thank you.

schematic

I recentaly got a old electronic guitar. The only thing wrong with it was the switch. I was wondering if anybody could send some schematics or recommand a site.

Re: schematic

year, brand of guitar and model?

: I recentaly got a old electronic guitar. The only thing wrong with it was the switch. I was wondering if anybody could send some schematics or recommand a site.

GRAHAM COLTON

If anyone has any guitar chords or notes to graham colton songsemail them to me please.........of any other guitar music.....Chewy

Re: GRAHAM COLTON

: If anyone has any guitar chords or notes to graham colton songsemail them to me please.........of any other guitar music.....Chewy

they're not usually hard to figure out..i'm not at home with my guitar right now, but i can tell you that cellophane girl (sp) is played w/ capo on the 3rd fret. G, D, X22033, X32033. the chord he does real quick before the chorus is XX223X. the chorus just switches the chords up a bit.
Chris Fagan

Post new comment

The content of this field is kept private and will not be shown publicly.
CAPTCHA
This question is for testing whether you are a human visitor and to prevent automated spam submissions. Do not include any spaces in your answer.
Image CAPTCHA
Copy the characters (respecting upper/lower case) from the image.

Contact | Contents | Privacy Policy | Forum

This site is published by Hitsquad Pty Ltd. Copyright © 1999 - 2021 , All Rights Reserved.

Affiliate Notice: As an Amazon Associate we earn from qualifying purchases.