Guitar Tabs

Guitar Tabs

Has any type of Tab you Would Want

You will Find any tab you want that are all corect and complete. For EX:Korn Metallica Local H Pearl Jam Tool Cake Foo Fighters Doors Manson Bush Blink182 Eve6 Nirvana And lots more. Theres also pics and sounds for all the bands.

Comment viewing options

Select your preferred way to display the comments and click "Save settings" to activate your changes.

solo - roadhause blues, The Doors

How can I get tablature the solo- roadhause blues, The Doors.

Thank's
Marcelo Vilges

Re: solo - roadhause blues, The Doors

: How can I get tablature the solo- roadhause blues, The Doors.

: Thank's
: Marcelo Vilges
gracias chau

KID ROCK TABS!! Can anyone help me???

I am looking for tabs for bass for kid rock. the slow song in particular.

i need metallica tabs

are there any places where i can get freetabs for metallica's enter sandman????????? please help!!!!!!!

Re: i need metallica tabs

: are there any places where i can get freetabs for any of metallicas songs please help please!!!!!!!!!!!!!

Re: i need weezer tabs

i cant seem to find any tabs to the song hashpipe can ya help?

Re: i need metallica tabs

: are there any places where i can get freetabs for metallica's enter sandman????????? please help!!!!!!!
-------------------------------------------------------
I'm sick of Enter Sandman, but reply if ya want the tabs!
Anthony

Re: i need metallica tabs

www.Tabcrawler.com

nothingelmatters

: : are there any places where i can get freetabs for metallica's enter sandman????????? please help!!!!!!!
: -------------------------------------------------------
: I'm sick of Enter Sandman, but reply if ya want the tabs!
: Anthony

Re: nothingelmatters

: im sick of yhis internet shit!!!!!!!!!!!!!

Re: i need metallica tabs

IF YOU WANT METALLICA TABS, LOOK AT WWW.GEOCITIES.COM/TOMAHAWK315
ALL OF THEM ARE THERE

Re: i need metallica tabs

e-mail me and i can get you hundreds of sites

I NEED BASS TABS FOR BLINK182'S WASTING TIME

I need these tabs please

Re: I NEED BASS TABS FOR BLINK182'S WASTING TIME

: I need these tabs please
man overboard

Re: I NEED BASS TABS FOR BLINK182'S WASTING TIME

: : I need these tabs please
: all the small things

Re: I NEED BASS TABS FOR BLINK182'S WASTING TIME

: I need these tabs please

Re: I NEED BASS TABS FOR BLINK182'S WASTING TIME

: : I need these tabs please
going away to school
aliens exist
damnit
man overboard

need cake tab: stick shift and saftey belts

i am looking for stick shifts and saftey bels by cake.thanks

Re: need cake tab: stick shift and saftey belts

: i am looking for stick shifts and saftey bels by cake.thanks

Re: need cake tab: stick shift and saftey belts

: : i am looking for cake bass tab...iwill survive...is this a free service? thanks

Adam's Song Tab

If someone thinks they have the right tabs for Adam's Song, please let me know.

Re: Adam's Song Tab

: If someone thinks they have the right tabs for Adam's Song, please let me know.

I WANT IT

Re: Adam's Song Tab

: : If someone thinks they have the right tabs for Adam's Song, please let me know.

: I WANT IT
yeah!

Re: Adam's Song Tab

: If someone thinks they have the right tabs for Adam's Song, please let me know.

I HAVE THE CORRECT ADAMS SONG TABS

here they are

-----------------------
Tune Down Whole Step
-----------------------

Opening (Clean)
|-----------------------------------------------------|
|-----------------------------------------------------|
|-----------------------------------------------------|
|-----4-0---4-0---4-0---4-0---4-0---4-0---4-0---4-0---|
|---2-----2-----0-----0-------------------------------|
|---------------------------3-----3-----0-----3-------|

Verse (Dist, Palm Mute)
|---------------------------------------------------------------------|
|---------------------------------------------------------------------|
|---------------------------------------------------------------------|
|---4-4-4-4-4-4-4-4---------------------------------------------------|
|---5-5-5-5-5-5-5-5-5-5-5-5-5-5-5-5-9-9-9-9-9-9-9-9-5-5-5-5-5-5-5-5---|
|-------------------3-3-3-3-3-3-3-3-7-7-7-7-7-7-7-7-3-3-3-3-3-3-3-3---|

Interlude (Clean)
|-----------------------------------------------------|
|-----------------------------------------------------|
|-------0-----0-----0-----0---------------------------|
|-----7-----7-----9-----9-----4-0---4-0---4-0---4-0---|
|---5-----5-----7-----7-----2-----2-------------------|
|---------------------------------------3-----3-------|

[Last two 4's on D string replaced by 2's second time around]

Pre-Chorus Octaves (On Album - Dist, Live - Clean)
|---------------------------------------------------------------------|
|---------------------------------------------------------------------|
|---7-7-7-7-7-7-7-7-9-9-9-9-9-9-9-9-4-4-4-4-4-4-4-4-------------------|
|---x-x-x-x-x-x-x-x-x-x-x-x-x-x-x-x-x-x-x-x-x-x-x-x-5-5-5-5-5-5-5-5---|
|---5-5-5-5-5-5-5-5-7-7-7-7-7-7-7-7-2-2-2-2-2-2-2-2-x-x-x-x-x-x-x-x---|
|---------------------------------------------------3-3-3-3-3-3-3-3---|

Chorus (Dist)
D5 E5 B5 G5
|---------------------------------------------------------------------|
|---------------------------------------------------------------------|
|---7-7-7-7-7-7-7-7-----------------4-4-4-4-4-4-4-4-------------------|
|---7-7-7-7-7-7-7-7-2-2-2-2-2-2-2-2-4-4-4-4-4-4-4-4-5-5-5-5-5-5-5-5---|
|---5-5-5-5-5-5-5-5-2-2-2-2-2-2-2-2-2-2-2-2-2-2-2-2-5-5-5-5-5-5-5-5---|
|-------------------2-2-2-2-2-2-2-2-----------------5-5-5-5-5-5-5-5---|

2nd Interlude (Part 1 - Clean (Supposed to be Acoustic) All notes 1 beat unless given)
|-------------------------------------------------------2 (2 beats)-------|
|---------------3-(4 beats)---------------3-(1.5 beats)-------------3-----|
|---0-(4 beats)-------------2-(2.5 beats)-----------------------------2---|
|-------------------------------------------------------------------------|
|-------------------------------------------------------------------------|
|-------------------------------------------------------------------------|

Part 1 (cont'd) (clean)
|---2-(two beats)---------------------------------------------|
|-----------------3---3-(4 beats------------------------------|
|-------------------2-----------------------------------------|
|-------------------------------------------------------------|
|-------------------------------------------------------------|
|-------------------------------------------------------------|

Part 2 (clean)
|-------------------------------------------------------------|
|-------------------------------------------------------------|
|-------------------------------------------------------------|
|-------2---2---2p0---4-----0---------------------------------|
|-----2-------------0-----2-----------------------------------|
|---5-----5---5---------5-------------------------------------|

Part 3 (clean)
|-----------------------------------------------------------------|
|-----------------------------------------------------------------|
|-------0---0-----------0-----------------------------------0-----|
|-----4-------4---4---4-----4---0-------2---2---2p0---4---4-------|
|---5-----5-----5---5-----5---5---5---2-------------5---5-----5---|
|-----------------------------------5-----5---5-------------------|

Part 4 (clean)
|-------------------------------------------------------------|
|-------------------------------------------------------------|
|-------7-----7-----7-----7-----7-----------------------------|
|-----0-----0-----0-----0-----0---0---------------------------|
|---5-----5-----5-----5-----5---------------------------------|
|-------------------------------------------------------------|

-----------------------
*NOTE* - It is impossible to play all the parts on the album version, there are 5 guitars
on it. The chorus may seem wrong but it is what the guitar playing the power chord chorus
is playing. The parts in the chorus that seem higher are caused by three other guitars
playing different sets of octaves (not included). The fifth guitar is the acoustic in
Part 1. Any other questions email me at resist182@yahoo.com .
-----------------------
SONG ORDER

Opening (x2)
Verse (x4)
Interlude (x2)
Pre-Chorus (x2)
Chorus (x2)
Opening (x2)
Verse (x4)
Interlude (x2)
Pre-Chorus (x2)
Chorus (x2)
2nd Interlude - Part 1 (x1)
4 Beats Rest
Part 2 (x1)
Part 3 (x1)
Part 4 (x4)
Chorus (x4)
-----------------------

i need all blink 182 tab cause they rock

I WANT IT NOW

Re: i need all blink 182 tab cause they rock

Well then go to http://www.olga.net and you will find them.......DO IT

I need Cake/I will survive solo

I need Cake/I will survive solo

Re: I need Cake/I will survive solo

: I need Cake/I will survive solo

find it here

see if you can use the tab at

http://www.galeon.com/nannicantipot/guitarrazos/indice3.html

I hope you find it useful.

WB

Re: I need Cake/I will survive solo

: : I need Cake/I will survive solo

would appreciate the tab for that tune, if anyone has it please send.

find it here

see if you can use the tab at

http://www.galeon.com/nannicantipot/guitarrazos/indice3.html

I hope you find it useful.

WB

Re: I need Cake/I will survive solo

I have tried to tab that solo. You can find it at www.geocities.com/nannicantipot

(the link at the bottom, the Gibson guitar)

Of course I might have made mistakes but I think it is good enough to be useful. I hope you can use it.

Good luck,

WB

Re: I need Cake/I will survive solo

: : I need Cake/I will survive solo

Me To!

fond it here

see if you can use the tab at

http://www.galeon.com/nannicantipot/guitarrazos/indice3.html

I hope you find it useful.

WB

blink182 what's my age again? tab

send me the tab

Re: blink182 what's my age again? tab

: PLZ send me the tab , thank´s

Re: blink182 what's my age again? tab

: send me the tab

Re: blink182 what's my age again? tab

: : send me the tab
Here Are The Tabs you are looking for, and there pretty easy too........
Greetings from a fellow punker!

it for ARTIST: "BLINK 182"
SONG: "WHAT'S MY AGE AGAIN"
ALBUM: "ENEMA OF THE STATE"
TABBED BY: "jmcdade@privatei.com"
WEBPAGE: "http://www.sparelead.com/blink182/
EMAIL ADDRESS: "blink182@sparelead.com"
-----------------------------------------------

RIFF 1:(verse)

E--------------------
B------11------------
G----------11--------
D---9----------------
A--------------------
E--------------------

--

RIFF 2:(chorus)

E--2-2-2-2-2---4-4-4-4-4---6-6-6-6-6---2-2-2-2-2-
B--2-2-2-2-2---6-6-6-6-6---8-8-8-8-8---4-4-4-4-4-
G--3-3-3-3-3---6-6-6-6-6---8-8-8-8-8---4-4-4-4-4-
D--4-4-4-4-4---6-6-6-6-6---8-8-8-8-8---4-4-4-4-4-
A--4-4-4-4-4---4-4-4-4-4---6-6-6-6-6---2-2-2-2-2-
E--2-2-2-2-2---x-x-x-x-x---x-x-x-x-x---x-x-x-x-x-

--

RIFF 3:(verse 2)

(palm muted)

E--7-7-7-7-7---2-2-2-2-2---4-4-4-4-4---6-6-6-6-6--
B--7-7-7-7-7---2-2-2-2-2---6-6-6-6-6---8-8-8-8-8--
G--8-8-8-8-8---3-3-3-3-3---6-6-6-6-6---8-8-8-8-8--
D--9-9-9-9-9---4-4-4-4-4---6-6-6-6-6---8-8-8-8-8--
A--9-9-9-9-9---4-4-4-4-4---4-4-4-4-4---6-6-6-6-6--
E--7-7-7-7-7---2-2-2-2-2---x-x-x-x-x---x-x-x-x-x--

--

RIFF 2:(chorus again)

E--2-2-2-2-2---4-4-4-4-4---6-6-6-6-6---2-2-2-2-2-
B--2-2-2-2-2---6-6-6-6-6---8-8-8-8-8---4-4-4-4-4-
G--3-3-3-3-3---6-6-6-6-6---8-8-8-8-8---4-4-4-4-4-
D--4-4-4-4-4---6-6-6-6-6---8-8-8-8-8---4-4-4-4-4-
A--4-4-4-4-4---4-4-4-4-4---6-6-6-6-6---2-2-2-2-2-
E--2-2-2-2-2---x-x-x-x-x---x-x-x-x-x---x-x-x-x-x-

--

BRIDGE:

E-----------------------------------------------------------------------
B--11--------------11--------------11-----------11----------------------
G-------11--------------11--------------11-----------11----------- 3-4--
D-----------------------------------------------------------4-4-4-------
A-----------------------------------------------------------------------
E-----------------------------------------------------------------------

E---------------------------------------------2------------2------------
B-----------------------------------------------------------------------
G--------3-4---------3-4---------3-4-----3-4----4-3----3-4---4-3--------
D-4-4-4--------4-4-4-------4-4-4-------4-------------4------------------
A-----------------------------------------------------------------------
E-----------------------------------------------------------------------

E-------2------------2--------------------------------------------------
B-----------------------------------------------------------------------
G---3-4--4-3-----3-4---4-3----------------------------------------------
D-4------------4--------------------------------------------------------
A-----------------------------------------------------------------------
E-----------------------------------------------------------------------

--

Thats it. If it's not 100% right... than figure it out yourself. Again
thanks to jmcdade@privatei.com for tabbing us.

creed's what if tabs.

hey,
anyone have the tabs for Creed's new song 'what if'?

Re: creed's what if tabs.

: hey,
: anyone have the tabs for Creed's new song 'what if'?

-------------------------------
I'll get ya the tabs, mail me!!

eat shit....

:

: -------------------------------
I don't have nothing, only a big pijaaaaaaaaaaaaaaaaaaaaaaaaaaaaaaaaa

I neeD $lipkNot taBs!!!!

does anyone have or no where to get slipknot tabs i want 2 play it so badly!!!!!!please e-mail me!!

guitar tabs

I WANT AND NEED GUITARE TABS!!!!!!

I have all the tabs for Enema of the State

Hey whoever this is and if u want the tabs for all the songs on Enema just email me on blinkyboy8254283@cs.com

Re: I have all the tabs for Enema of the State

Aren't they all just three chords and a one string solo?

Re: I have all the tabs for Enema of the State

hey dude can you send me the guitar tabs for base and electric guitar for adams song (blink 182)
tank-a-lot
e-mail= zodiac_03@hotmail.com

i need all the tabs u got from enema of the state bass and electric

please send me all u got

i need all the tabs u got from enema of the state bass and electric

please send me all u got

Re: I have all the tabs for Enema of the State

: Hey whoever this is and if u want the tabs for all the songs on Enema just email me on blinkyboy8254283@cs.com

Post new comment

The content of this field is kept private and will not be shown publicly.
CAPTCHA
This question is for testing whether you are a human visitor and to prevent automated spam submissions. Do not include any spaces in your answer.
Image CAPTCHA
Copy the characters (respecting upper/lower case) from the image.

Contact | Advertise | Contents | Privacy Policy | Forum

This site is published by Hitsquad Pty Ltd. Copyright © 1999 - 2017 , All Rights Reserved.