Rimsky's Guitar Chords Song Page

Rimsky's Guitar Chords Song Page

Accurate guitar chords to song transcriptions

Accurate guitar transcriptions to popular songs that are difficult, if not impossible, to find elsewhere online.



Comment viewing options

Select your preferred way to display the comments and click "Save settings" to activate your changes.

Re: chords of bryan adams" PLEASE FORGIVE ME"

: : : : i need the chord chart of the songs"PLEASE FORGIVE ME" of bryan adams
: : Send me your e-mail adress.

: : schmitz_daniel@gmx.de

The Great Plians Band

Hi , I'm trying to find cords for songs written by the group Great Plains in the 90's . Their music is good stuff.. but they stopped playing in 91 . Any help would be great . Songs like " Rich Man ', Running From The Rain, etc. Thanks m.G.b. Tom

The Great Plians Band

Hi , I'm trying to find cords for songs written by the group Great Plains in the 90's . Their music is good stuff.. but they stopped playing in 91 . Any help would be great . Songs like " Rich Man ', Running From The Rain, etc. Thanks m.G.b. Tom

guitar chords !

hey guys...
pls can someone send me the chords for the song "rockin goa" from the movie "Dil chahta hai" ??
pls send them fast....am desparately waiting for them !

Re: guitar chords !

send me a mail and i will post u the chords for the same.....!! if u can get the chords for the rest of the songs from dil chahta hain apart from rock in goa which i know......... plz send me......!!!

hiii

need guitar chords for eagles songs take it easy & any good songs to be played on acoustic guitar

suck mather fucker my shit ass you bastard muzafaka!!!

suck my ass bastardz all off you are suckers dikless

Re: suck mather fucker my shit ass you bastard muzafaka!!!

: suck my ass bastardz all off you are suckers dikless
fuck juor self bich

Redemption Song

Please email me tabs for Bob Marley's Redemption Song. That would be great--thanks, Eileen

Re: Redemption Song

: Please email me tabs for Bob Marley's Redemption Song. That would be great--thanks,Peggy

Ronan Keating Chords

Ronan Keating Chords

This popular thread has been given its own page : Ronan Keating Chords

k.t. oslin

Anybody have lyrics to k.t. oslin songs, Do Ya and I'll Always Come Back, 80's Ladies or Younger Men?

Re: k.t. oslin

Artist : K.t Oslin
Song : Younger Men
Album :
Submitted by : Akilah D.
Corrected by :
Rated : 10.0 (1 vote)

"Women peak at fourty, and men at ninteen
I remember laughing my head off when I read that in a magazine
(I was twenty at the time)
Now I'm staring fourty right in the face
And the only trouble with being a woman my age, is the men my age.

That's why younger men are starting to catch my eye
I'm starting to stop what I'm doing
just to turn around and watch them walk by
At the very next opportunity
I'm gonna give a younger man a try
Because younger men are starting to catch my eye

Men my age, poor old darlings, they're worried and their harry
Some of them drink too much, whole lot of them are married
And honey here I'm at on the threshold of all that fun
I'm gonna try my best to cross it with a younger one

Oh, I said that younger men are starting to catch my eye
I'm starting to stop what I'm doing
Just to turn around and watch them walk by
At the very next opportunity
I'm gonna give a younger man a try
Because younger men are starting to catch my eye

(Musical interlude)

Woah, look over here
We got a cute little ol' runner to the right
Blue shorts, no shirt
Whoo! You're looking good darling
That's right, stay in shape

Ohh... Ohh... Ohhhhhhh...

Because younger men are starting to catch my eye
Yes, I said younger men are starting to catch my eye"

Re: k.t. oslin

80's Ladies: K.T. Oslin.

Written by K T Oslin.
(© Moose Music/SOCAN/ASCAP.)
From "80's Ladies", © 1987, RCA.

We were three little girls from school.
One was pretty, one was smart,
And one was a borderline fool.
Oh, she's still good looking,
That woman hasn't slipped a bit.
And the smart one used her head,
She made her fortune
And me, I cross the border every chance I get.

We were the girls of the 50's,
Stone rock and rollers in the 60's,
And more than our names got changed,
As the 70's slipped on by.
Now we're 80's ladies:
There ain't been much these ladies ain't tried.

We've been educated, we got liberated,
And that's complicating matters with men.
Oh, we've said "I do" and we've signed "I don't",
And we've sworn we'd never do that again.
Oh, we've burned our bras and we've burned our dinners,
And we've burned our candles at both ends.
And we've got some children who look just like,
The way we did back then.

Oh, but we're all grown up now.
All grown up, none of us can tell you quite how.

We were the girls of the 50's,
Stone rock and rollers in the 60's.
Honey, more than our names got changed,
As the 70's slipped on by.
Now we're 80's ladies:
There ain't been much these ladies ain't tried.

A - My name is Alice, I'm gonna marry .
We're gonna sell apples and live in Arkansas.
B - My name is Betty, I'm gonna marry Bobby,
We're gonna sell beans and live in Brazil.
C - my name is Connie, I'm gonna marry Charlie,
We're gonna sell cars and live in California.

Re: k.t. oslin

"I'll Always Come Back"

There's a nursery rhyme, it's a favorite of mine
'Bout a little girl and some sheep that she could not find
They told her not to worry, they'd come back
Darlin' you're my shepherd, I'm little your little lamb
You ain't always gonna know where I am
But don't you worry, I'll come back
(Chorus:)
(I'll always come back baby to you
I'll always run back straight to you
I'll never get to far away from you
I'll never get too lost that I can't be found
And I'll never swim to far out out I might drown
And I'll always come back, come back baby to you)
There's a wooden wonder from way down under
They call it boomerang
If you handle it right, it'll come back
Darlin' you must have had one when you were a boy
'Cause you've got the touch that turns me into a toy
And like a boomerang I'll come back
(Repeat Chorus)

Re: k.t. oslin

Artist : K.t Oslin
Song : Younger Men
Album :
Submitted by : Akilah D.
Corrected by :
Rated : 10.0 (1 vote)

"Women peak at fourty, and men at ninteen
I remember laughing my head off when I read that in a magazine
(I was twenty at the time)
Now I'm staring fourty right in the face
And the only trouble with being a woman my age, is the men my age.

That's why younger men are starting to catch my eye
I'm starting to stop what I'm doing
just to turn around and watch them walk by
At the very next opportunity
I'm gonna give a younger man a try
Because younger men are starting to catch my eye

Men my age, poor old darlings, they're worried and their harry
Some of them drink too much, whole lot of them are married
And honey here I'm at on the threshold of all that fun
I'm gonna try my best to cross it with a younger one

Oh, I said that younger men are starting to catch my eye
I'm starting to stop what I'm doing
Just to turn around and watch them walk by
At the very next opportunity
I'm gonna give a younger man a try
Because younger men are starting to catch my eye

(Musical interlude)

Woah, look over here
We got a cute little ol' runner to the right
Blue shorts, no shirt
Whoo! You're looking good darling
That's right, stay in shape

Ohh... Ohh... Ohhhhhhh...

Because younger men are starting to catch my eye
Yes, I said younger men are starting to catch my eye"

Re: k.t. oslin

Artist : K.t Oslin
Song : Younger Men
Album :
Submitted by : Akilah D.
Corrected by :
Rated : 10.0 (1 vote)

"Women peak at fourty, and men at ninteen
I remember laughing my head off when I read that in a magazine
(I was twenty at the time)
Now I'm staring fourty right in the face
And the only trouble with being a woman my age, is the men my age.

That's why younger men are starting to catch my eye
I'm starting to stop what I'm doing
just to turn around and watch them walk by
At the very next opportunity
I'm gonna give a younger man a try
Because younger men are starting to catch my eye

Men my age, poor old darlings, they're worried and their harry
Some of them drink too much, whole lot of them are married
And honey here I'm at on the threshold of all that fun
I'm gonna try my best to cross it with a younger one

Oh, I said that younger men are starting to catch my eye
I'm starting to stop what I'm doing
Just to turn around and watch them walk by
At the very next opportunity
I'm gonna give a younger man a try
Because younger men are starting to catch my eye

(Musical interlude)

Woah, look over here
We got a cute little ol' runner to the right
Blue shorts, no shirt
Whoo! You're looking good darling
That's right, stay in shape

Ohh... Ohh... Ohhhhhhh...

Because younger men are starting to catch my eye
Yes, I said younger men are starting to catch my eye"

Re: k.t. oslin

 k.t. oslin

This popular thread has been given its own page : Re: k.t. oslin

GUITAR SONGS & CHORDS!!!

Please can someone send the lyrics/chords for the songs:
EAGLES
hotel california
PAPA ROACH
last resort
ALIEN ANT FARM
smooth criminal
NICKLEBACK
how you remind me
PENNYWISE
fu*k authority

thank you.
please send to my email, stevenbach@hotmail.

thank you very much, steve.

Re: GUITAR SONGS & CHORDS!!!

: Please can someone send the lyrics/chords for the songs:
: EAGLES
: hotel california
: PAPA ROACH
: last resort
: ALIEN ANT FARM
: smooth criminal
: NICKLEBACK
: how you remind me
: PENNYWISE
: fu*k authority

: thank you.
: please send to my email, stevenbach@hotmail.

: thank you very much, steve.

Please can you send me the chords of I need you by Marc Anthony
Thank you
Paul

Re: GUITAR SONGS & CHORDS!!!

Hiya guys

can sum1 plz send me sum chords not tabs though coz i can,t resad them, 2 me the songs i would like are: Nickleback, how you remind me and Powder finger, My Happiness and if any1 has any other cool songs or chords they wanna send me then plz do. i'd also like the lyrics 2 the songs if any1 has them thanx so much. Luv Beckie xxxxxxx

Wonderful life

Please send me chords of the song 'Wonderful life' BLACK
Thanks.

guitar chords for Colin Raye

Could I please get the guitar chords to the songs "Love, Me" and
"One Boy, One Girl"

Thanks

Re: guitar chords for Colin Raye

: Could I please get the guitar chords to the songs "Love, Me" and
:

: Thanks

Re: request for guitar chords for Colin Raye

Did u get the chords ? Can u tell me where to find them ? Thanks

Re: request for guitar chords for Colin Raye

this i copied from a link a while back....it's not really the actual correct way. because i think there's a F in the intro and in this one they use a d7. listen to the song and arrange it that way....but the rest is correct i think...or close....this one is missing some bass chords....it's basically the cheating way to play it but still sounds good....good luck!

Re: request for guitar chords for Colin Raye

:Intro:
C G/B Am G Dm7 G C
||-0--------------|----------------|-1-0------------|-------1----0---|
||---3-1-3--------|-1-0-1-1--------|-2---3-1-0---1-1|----------------|
||-------------0--|-------------0--|-0-0------------|---0---2----0---|
||-----------0---0|-----------2---0|-----3-2---0----|----------------|
||-3-------2------|-0--------------|----------------|-3----------3---|
||----------------|---------3------|---------3------|----------------|

Verse:
C C/B Am F G C
||-------0--------|----------------|----------------|------3---------|
||-----1---------1|-------1--------|-------1-------0|----1-------1---|
||---0---------0--|-----2-------2--|-----2-------0--|--0-------0---0-|
||-----------0----|---2-------2---2|---3-------0----|-------0h2------|
||-3-------2------|-0-------0------|----------------|-3--------------|
||----------------|----------------|-1-------3------|----------------|

C C/B Am Dm7 G Gsus
||-------0--------|----------------|-------1--------|----------------|
||-----1---------1|-------1--------|-----1-------1--|-1-----1-0------|
||---0---------0--|-----2-------2--|---2-------2---0|-----0-------0--|
||-----------0----|---2-------2---2|-0-------0------|---0-------0---0|
||-3-------2------|-0-------0------|----------------|----------------|
||----------------|----------------|----------------|-3-------3------|

C C/B Am F G C
||-------0--------|----------------|----------------|------3--------3|
||-----1---------1|-------1--------|-------1-------0|----1--------1--|
||---0---------0--|-----2-------2--|-----2-------0--|--0--------0----|
||-----------0----|---2-------2---2|---3-------0----|-------0h2------|
||-3-------2------|-0-------0------|----------------|-3--------------|
||----------------|----------------|-1-------3------|----------------|

C C/B Am F Gsus G C
||-------0--------|----------------|-------3--------|--0---1---0-----|
||-----1---------1|-------------1--|-------1--------|----------------|
||---0---------0--|-----2-----2----|-----0---------0|--0---2---0-----|
||-----------0----|---2-----3------|---0---------0--|----------------|
||-3-------2------|-0--------------|-----------2----|-3--------------|
||----------------|-------1--------|-3--------------|----------------|

Chorus:(1)
F G C F G C
||----------------|----0-3---0-3-0-|----------------|------0-----0---|
||------1-------0-|----1-3---1-3-1-|------1-------0-|----1-----1---0-|
||----2-------0---|----0-0---0-0-0-|----2-------0---|--0-------------|
||--3-------0-----|--2-------------|--3-------0-----|----------------|
||----------------|3---------------|----------------|3---------------|
||1-------3-------|----------------|1-------3-------|----------------|

(2)
F G Am Dm7 F Gsus
||----------------|----------------|------1-------1-|3-----3--3------|
||------1-------0-|------1---------|----1-------1---|1-----1--0------|
||----2-------0---|----2-------2---|--2-------2-----|----0------0----|
||--3-------0-----|--2-------2---2-|0-------3-------|--0----------0--|
||----------------|0---------------|----------------|----------------|
||1-------3-------|----------------|----------------|3---------------|

(3)
F G C F G Am
||----------------|------3-----3---|----------------|----0-----------|
||------1-------0-|----1-----1---1-|------1-------0-|------1---------|
||----2-------0---|--0-------------|----2-------0---|-----------2----|
||--3-------0-----|----------------|--3-------0-----|--2-------------|
||----------------|3---------------|----------------|0---------------|
||1-------3-------|----------------|1-------3-------|--------------3-|

(4)
F G E Am F9 G
||----------------|0---------------|------3-------3-|3---------------|
||----1-0---------|0-----1---------|----------1-----|0---------------|
||----2-0-----0---|1---1-2-----2---|----2-------2---|0---------------|
||--3-------0---0-|--2-------2---2-|--3-------------|----------------|
||----------------|------0---------|----------------|----------------|
||1-----3---------|0---------------|1---------------|3---------------|

(5)
C C/E
||------------3---|0---------------|----------------|----------------|
||----1-3---1-1---|1---1-3-----1---|----------------|----------------|
||----0-0---0-0---|0---0-0-----0---|----------------|----------------|
||--2-------------|--2-------2-----|----------------|----------------|
||3---------------|----------------|----------------|----------------|
||----------------|0---------------|----------------|---

Re: request for guitar chords for Colin Raye

Intro:
C G/B Am G Dm7 G C
||-0--------------|----------------|-1-0------------|-------1----0---|
||---3-1-3--------|-1-0-1-1--------|-2---3-1-0---1-1|----------------|
||-------------0--|-------------0--|-0-0------------|---0---2----0---|
||-----------0---0|-----------2---0|-----3-2---0----|----------------|
||-3-------2------|-0--------------|----------------|-3----------3---|
||----------------|---------3------|---------3------|----------------|

Verse:
C C/B Am F G C
||-------0--------|----------------|----------------|------3---------|
||-----1---------1|-------1--------|-------1-------0|----1-------1---|
||---0---------0--|-----2-------2--|-----2-------0--|--0-------0---0-|
||-----------0----|---2-------2---2|---3-------0----|-------0h2------|
||-3-------2------|-0-------0------|----------------|-3--------------|
||----------------|----------------|-1-------3------|----------------|

C C/B Am Dm7 G Gsus
||-------0--------|----------------|-------1--------|----------------|
||-----1---------1|-------1--------|-----1-------1--|-1-----1-0------|
||---0---------0--|-----2-------2--|---2-------2---0|-----0-------0--|
||-----------0----|---2-------2---2|-0-------0------|---0-------0---0|
||-3-------2------|-0-------0------|----------------|----------------|
||----------------|----------------|----------------|-3-------3------|

C C/B Am F G C
||-------0--------|----------------|----------------|------3--------3|
||-----1---------1|-------1--------|-------1-------0|----1--------1--|
||---0---------0--|-----2-------2--|-----2-------0--|--0--------0----|
||-----------0----|---2-------2---2|---3-------0----|-------0h2------|
||-3-------2------|-0-------0------|----------------|-3--------------|
||----------------|----------------|-1-------3------|----------------|

C C/B Am F Gsus G C
||-------0--------|----------------|-------3--------|--0---1---0-----|
||-----1---------1|-------------1--|-------1--------|----------------|
||---0---------0--|-----2-----2----|-----0---------0|--0---2---0-----|
||-----------0----|---2-----3------|---0---------0--|----------------|
||-3-------2------|-0--------------|-----------2----|-3--------------|
||----------------|-------1--------|-3--------------|----------------|

Chorus:(1)
F G C F G C
||----------------|----0-3---0-3-0-|----------------|------0-----0---|
||------1-------0-|----1-3---1-3-1-|------1-------0-|----1-----1---0-|
||----2-------0---|----0-0---0-0-0-|----2-------0---|--0-------------|
||--3-------0-----|--2-------------|--3-------0-----|----------------|
||----------------|3---------------|----------------|3---------------|
||1-------3-------|----------------|1-------3-------|----------------|

(2)
F G Am Dm7 F Gsus
||----------------|----------------|------1-------1-|3-----3--3------|
||------1-------0-|------1---------|----1-------1---|1-----1--0------|
||----2-------0---|----2-------2---|--2-------2-----|----0------0----|
||--3-------0-----|--2-------2---2-|0-------3-------|--0----------0--|
||----------------|0---------------|----------------|----------------|
||1-------3-------|----------------|----------------|3---------------|

(3)
F G C F G Am
||----------------|------3-----3---|----------------|----0-----------|
||------1-------0-|----1-----1---1-|------1-------0-|------1---------|
||----2-------0---|--0-------------|----2-------0---|-----------2----|
||--3-------0-----|----------------|--3-------0-----|--2-------------|
||----------------|3---------------|----------------|0---------------|
||1-------3-------|----------------|1-------3-------|--------------3-|

(4)
F G E Am F9 G
||----------------|0---------------|------3-------3-|3---------------|
||----1-0---------|0-----1---------|----------1-----|0---------------|
||----2-0-----0---|1---1-2-----2---|----2-------2---|0---------------|
||--3-------0---0-|--2-------2---2-|--3-------------|----------------|
||----------------|------0---------|----------------|----------------|
||1-----3---------|0---------------|1---------------|3---------------|

(5)
C C/E
||------------3---|0---------------|----------------|----------------|
||----1-3---1-1---|1---1-3-----1---|----------------|----------------|
||----0-0---0-0---|0---0-0-----0---|----------------|----------------|
||--2-------------|--2-------2-----|----------------|----------------|
||3---------------|----------------|----------------|----------------|
||----------------|0---------------|----------------|---

chords

can you please send me the chords for jewels song, near you always. Thanks

Re: chords

: can you please send me the chords for after the love is/has gone by tommy emmanuel feat.cdb song, near you always. Thanks

do you take sugar???

hi...
please....easy chords for 'pour some sugar on me'.
...and if there can possibly be easy chords for any of the following dave matthews numbers,i'll be really ecstatic...
ants marching,dancing nancies,satellite(under the table...)
spoon,crush(before these crowded streets)
i love dave matthews.
thanksabunch,
anoopa

Request for Guitar Chords

I need guitar chords for Popular country songs of Don Williams,
Imagine by John Lennon...

Request for Guitar Chords

i need chords for th nick cater song : help me...!! can i get some help??

Re: Request for Guitar Chords

i need guitar chords from blink 182 songs

guitar chords for songs

Please send me simple chords for Nothing else Matters Mettalica...

Re: guitar chords for songs

SEND ME GUITAR CHORDS LYRICS FOR A SONG CALLED HOTEL CARLIFORNIA

Re: guitar chords for disturbed and godsmack

please send me guitar chords for the sickness by disturbed

and guitar chords for godsmack awake

Re: guitar chords for songs

i need guitar chords for - have i told you lately - by rod stewart

Re: guitar chords for songs

: Please send me free songs chords ;hotel carlifornia,eagles songs,nirvana songs,chura liya & others hits on my e-mail address.
i will be very thankful to u

Re: guitar chords for songs

: : Please send me free songs chords ;hotel carlifornia,eagles songs,nirvana songs,chura liya & others hits on my e-mail address.
: i will be very thankful to u

Re: guitar chords for songs

: : : Please send me free songs chords ;chura liya hai tumane jo dil ko

Re: guitar chords for songs

: : : : Please send me free songs chords ;chura liya hai tumane jo dil ko,tahha dil-shaan,dil ko tum se pya hua-rehna hai tere dil mein

Re: guitar chords for songs

HI Rohit,

Are u the same rohit from INS Hamla????

Re: guitar chords for songs

: : Please send me free songs chords ;hotel carlifornia,eagles songs,metalica on my e-mail address.
: i will be very thankful to u

Re: guitar chords for songs

: : : Please send me free songs chords ;hotel carlifornia,eagles songs,metalica on my e-mail address.
: : i will be very thankful to u

Re: guitar chords for songs

: : : : Please send me free songs chords with lyrics ;hotel carlifornia,eagles songs,metalica on my e-mail address.
: : : i will be very thankful to u

Re: guitar chords for songs

: : : : Please send me free songs chords ;hotel carlifornia,eagles songs,metalica on my e-mail address.
: : : i will be very thankful to u

Re: guitar chords for hotel of carlifornia songs

: : : : : Please send me free songs chords ;hotel carlifornia,eagles songs,metalica on my e-mail address.
: : : : i will be very thankful to u

Re: guitar chords for songs

: : : : Please send me free songs chords ;far beyon the sun,ynwie malmsteen,metalica on my e-mail address.
: : : i will be very thankful to u

Re: guitar chords for songs

PLS SEND ME GUITAR CHORDS FOR OASIS, LITTLE BY LITTE, THANX, STAY COOL YEAH!!!

Post new comment

The content of this field is kept private and will not be shown publicly.
CAPTCHA
This question is for testing whether you are a human visitor and to prevent automated spam submissions. Do not include any spaces in your answer.
Image CAPTCHA
Copy the characters (respecting upper/lower case) from the image.

Contact | Contents | Privacy Policy | Forum

This site is published by Hitsquad Pty Ltd. Copyright © 1999 - 2019 , All Rights Reserved.