Paul Kelly Guitar

Paul Kelly Guitar

Paul Kelly Guitar Tabs

Guitar tabs for almost every song from every album - Post to Words & Music

Comment viewing options

Select your preferred way to display the comments and click "Save settings" to activate your changes.

yeh mate

goes somthin like this

G D C G G D
e-----------------------------------------------------------------
B-----------------------------------------------------------------
G-----------------------------------------------------------------
D---------------------------------------------------0--------------
A-----------0-2---------------0-2-2--------------2-----2-0--------
E-3-3-3-3-----------3-3-3-3-------------3-3-3-3-------------3-----

C G G D
e---------------------------------------------------------
B---------------------------------9S12--12-12--12S10--------
G----------------------------0-0----------------------------
D--0-0-0-0-0----------0-2-0--------------------------------
A-------------2-0-----------------------------------------
E------------------3---------------------------------------

C G G D
e---------------------------------------------------------
B--10-10--10S8--8-8-8-7--------8--------8-8---8--10--10B11
G-----------------------9-7------9-7-9------9------------
D---------------------------7----------------------------
A--------------------------------------------------------
E--------------------------------------------------------

C G
e---------------------------------------------------------
B-10B11--10B11R10--8----8-----------------------------------
G--------------------9----9-7-9-7------------------------
D---------------------------------9-7-5-5--5--------------
A--------------------------------------------7-5------------
E-------------------------------------------------3-3-------

in the middle of the air

Heard a new PK song on JJJ the other day called "In the middle of the air", I'd love to get the lyrics and chords if possible. Have tried all sources but have so far come unstuck

the gift that keeps on giving

i heard this song on a CD of Paul Kelly covers calle "The Women at The Well"
and im TRYIN to find the tabs to it, but i cant
so does any1 know which album its off? and where i can get the tabs?

Re: the gift that keeps on giving

i heard this song -- "the gift that keeps on giving" --on a CD of Paul Kelly covers called "The Women at The Well"
and im TRYIN to find the tabs to it, but i cant
so does any1 know which album its off? and where i can get the tabs?

to her door solo

does anyone have the tabs for the solo to her door

To her door Paul kelly

Does anyone know the solo tab that occurs about halfway through this song, I've got the Chords but want to add this in as well.

Cheers,

Dave (Australia)

Re: To her door Paul kelly

noooo

: Dave (Australia)

Re: To her door Paul kelly/midi

: noooo

: : Dave (Australia)I Like Paul Kelly song to her door would you mind send me a midi of this song pls.

Paul Kelly music

Does anyone have the lyrics to the Paul Kelly song One Night the Moon?from the movie of the same name. I've worked out the chords but I'm buggared if I can remember the words.

Everythings Turning to White

Can anyone please tell where I can find the tab to "Everythings Turning to White" by paul kelly? I've looked everywhere.

dumb things

hey does anyone have a detailed tab version of "dumb things" by paul kelly?

Invisible me

ne 1 have tab for invisible me or other people's houses?????????

two wings

Hello,
I was just wondering if the song that vikka and linda sing called two wings, (princess tabu album) was written by you. I really reckon you would have to be one of the best writers in the world! great stuff, keep it up!
bye, from Clancy

Somewhere in the city

Hi,

Has someone got the tab to the acoustic version of "Somewhere in the City"? I'd love to have it. Thanks

Paul Kelly

Dose anyone know the guitar tab to Al Pacino's speach in the Movie Any Given Sunday? It says its played by Paul Kelly and/or Robbie Robertson. Please help.

Re: Paul Kelly

The song under Al Pacino's speech was performed by American Film Composer-Editor Paul Kelly, with vocals by Robbie Robertson. The song is called "Peace" and will be out soon on Paul Kelly's "SOUNDINGS IN FILM" Check out http://www.paulkelly.com for more details.

Re: Paul Kelly

: Dose anyone know the guitar tab to Al Pacino's speach in the Movie Any Given Sunday? It says its played by Paul Kelly and/or Robbie Robertson. Please help.
I have been looking for that peice forever !!!! if you know what the song is called please email me !!!

I got it !

The guitar piece is by Robbie Robertson and it's called Out of the blue (cover) .

And it is ... indeed fabulous!

Re: Paul Kelly

: : Dose anyone know the guitar tab to Al Pacino's speach in the Movie Any Given Sunday? It says its played by Paul Kelly and/or Robbie Robertson. Please help.
: I have been looking for that peice forever !!!! if you know what the song is called please email me !!!

I know the guitar tabs, youve probably gotten them already, but oh well

I was just messin around on the guitar one day...and came up with this:
Repeated over and over

e----------------------------------------
B----------------------------------------
G----------------------------------------
D--- 12--5---7---9-----------------------
A--12--5---5---9-------------------------
E-9--3---5---7---------------------------

Re: Paul Kelly

so does anyone know when this cd coems out?
please email me with details
thanks
james

"If I Could Start Today Again"

"If I Could Start Today Again"

This popular thread has been given its own page : "If I Could Start Today Again"

To Her Door

Please send Guitar tabs of To her door By Paul Kelly

Thanks.

Re: To Her Door

: Please send Guitar tabs of To her door By Paul Kelly
I love this song!! So Thank-You!!
:
: Thanks.

Post new comment

The content of this field is kept private and will not be shown publicly.
CAPTCHA
This question is for testing whether you are a human visitor and to prevent automated spam submissions. Do not include any spaces in your answer.
Image CAPTCHA
Copy the characters (respecting upper/lower case) from the image.

Contact | Advertise | Contents | Privacy Policy | Forum

This site is published by Hitsquad Pty Ltd. Copyright © 1999 - 2017 , All Rights Reserved.