The Crow - Guitar Solo.... The Tab???

Posted by Daniel on Sun, 02/17/02 - 23:52:17.

I'm searchin' for the tabs for the Guitar Solo in the movie 'The Crow'... The Solo wich is played ba Eric Draven on the Rooftop...

If someone's got it written down, please send it to me by E-mail

Thank's

Daniel

Related:
Top 100 Guitar Solos



Comment viewing options

Select your preferred way to display the comments and click "Save settings" to activate your changes.

Re: The Crow - Guitar Solo.... The Tab???

why dont you search for it on the internet

Thanks...

: why dont you search for it on the internet

Hey Maniac,... sometimes internet is really great!
After while searchin'.. I've found it!

It's quiet easy to play by the way but sounds just f***ing great...

For others who might be interrested, you can mail me...

Daniel

Re: The Crow - Guitar Solo.... The Tab???

Please if anyone has the tabs for the solo in "The Crow" by Eric Draven, please email it to me. I would like the entire thing. Thank you

here is the tab

Standard Tuning

---------------------------------------------------
----12--10--8-7---10------7--8-----10--------------
----------------------9---------7------5s9---------
---------------------------------------------------
---------------------------------------------------
---------------------------------------------------

---------------------------------------------------
--00-3-00--5-00--7-00--8-00--7-00--5-00------------
---------------------------------------------------
---------------------------------------------------
---------------------------------------------------
---------------------------------------------------

Re: here is the tab

: Standard Tuning

e|------------------5--------3------------------------
B|----12--10--8-7-----5---7-----3---5--1--5-----------G|----------------------------------------------------
D|----------------------------------------------------
A|----------------------------------------------------
E|----------------------------------------------------

e|---------------------------------------------------
B|--3-00-5-00-7-00-8-00-7-0-5-0-1-0-1/12-------------
G|---------------------------------------------------
D|---------------------------------------------------
A|---------------------------------------------------
E|---------------------------------------------------

Real 1

Re: here is the tab

: : Standard Tuning

: e|------------------5--------5------5---------------
: B|----12--10--8-7-----5---7-----5-----1/5-----------: G|--------------------------------------------------
: D|--------------------------------------------------
: A|--------------------------------------------------
: E|--------------------------------------------------

: e|------------------5--------3------5---------------
: B|----12--10--8-7-----5---7-----3-----1/5-----------: G|--------------------------------------------------
: D|--------------------------------------------------
: A|--------------------------------------------------
: E|--------------------------------------------------

: e|---------------------------------------------------
: B|--3-00-5-00-7-00-8-00-7-0-5-0-1-0-1/12-------------
: G|---------------------------------------------------
: D|---------------------------------------------------
: A|---------------------------------------------------
: E|---------------------------------------------------

: Real 1

Re: The Crow - Guitar Solo.... The Tab???

I think the ending that some of them give you is wrong. It should be played like this
-------
-------
---5---
------5
-5----- but yea, good stuff, the crow rocks my sox

Re: The Crow - Guitar Solo.... The Tab???

: why dont you search for it on the internet
no to hard

Re: The Crow - Guitar Solo.... The Tab???

you sad fuck

Re: The Crow - Guitar Solo.... The Tab???

: wheres the rest of the solo

Re: The Crow - Guitar Solo.... The Tab???

www.tabcrawler.com/ archive.php?action=filelist&artist_id=8385

Re: The Crow - Guitar Solo.... The Tab???

Hey im also searching for it and ive not bn able to find it so can someone plz email it so me at Sparda_carnage@yahoo.co.uk

Post new comment

The content of this field is kept private and will not be shown publicly.
CAPTCHA
This question is for testing whether you are a human visitor and to prevent automated spam submissions. Do not include any spaces in your answer.
Image CAPTCHA
Copy the characters (respecting upper/lower case) from the image.

Contact | Contents | Privacy Policy | Forum

This site is published by Hitsquad Pty Ltd. Copyright © 1999 - 2018 , All Rights Reserved.