guan huai fang shi tabs

Posted by yc on Mon, 06/17/02 - 08:57:19.

anyone has the guan huai fang shi tabs pls send. also if got zhi ji by vivien chow and samuel tai also send. anyone knows the new song by korean pop group 'kiss'? their 'because i'm a girl' tab if have send too! thanks.

Comment viewing options

Select your preferred way to display the comments and click "Save settings" to activate your changes.

Re: guan huai fang shi tabs

: anyone has the guan huai fang shi tabs pls send. also if got zhi ji by vivien chow and samuel tai also send. anyone knows the new song by korean pop group 'kiss'? their 'because i'm a girl' tab if have send too! thanks.

Re: guan huai fang shi tabs

: : anyone has the guan huai fang shi tabs pls send. anyone knows the new song by korean pop group 'kiss'? their 'because i'm a girl' tab if have send too! thanks.

Re: guan huai fang shi tabs

: : anyone has the guan huai fang shi tabs pls send. anyone knows the new song by korean pop group 'kiss'? their 'because i'm a girl' tab if have send too! thanks.

Re: guan huai fang shi tabs

: : anyone has the guan huai fang shi tabs pls send. anyone knows the new song by korean pop group 'kiss'? their 'because i'm a girl' tab if have send too! thanks.

Re: guan huai fang shi tabs

: : anyone has the guan huai fang shi tabs pls send. anyone knows the new song by korean pop group 'kiss'? their 'because i'm a girl' tab if have send too! thanks.

Re: guan huai fang shi tabs

: : anyone has the guan huai fang shi tabs pls send. anyone knows the new song by korean pop group 'kiss'? their 'because i'm a girl' tab if have send too! thanks.

Re: guan huai fang shi tabs

: : anyone has the guan huai fang shi tabs pls send. anyone knows the new song by korean pop group 'kiss'? their 'because i'm a girl' tab if have send too! thanks.

Re: guan huai fang shi tabs

: : anyone has the guan huai fang shi tabs pls send. anyone knows the new song by korean pop group 'kiss'? their 'because i'm a girl' tab if have send too! thanks.

Re: guan huai fang shi tabs

: : anyone has the guan huai fang shi tabs pls send. anyone knows the new song by korean pop group 'kiss'? their 'because i'm a girl' tab if have send too! thanks.

Re: guan huai fang shi tabs

: : anyone has the guan huai fang shi tabs pls send. anyone knows the new song by korean pop group 'kiss'? their 'because i'm a girl' tab if have send too! thanks.

Re: guan huai fang shi tabs

: : anyone has the guan huai fang shi tabs pls send. anyone knows the new song by korean pop group 'kiss'? their 'because i'm a girl' tab if have send too! thanks.

Re: guan huai fang shi tabs

: : anyone has the guan huai fang shi tabs pls send. anyone knows the new song by korean pop group 'kiss'? their 'because i'm a girl' tab if have send too! thanks.

Re: guan huai fang shi tabs

: : anyone has the guan huai fang shi tabs pls send. anyone knows the new song by korean pop group 'kiss'? their 'because i'm a girl' tab if have send too! thanks.

Re: guan huai fang shi tabs

: : anyone has the guan huai fang shi tabs pls send. anyone knows the new song by korean pop group 'kiss'? their 'because i'm a girl' tab if have send too! thanks.

Re: guan huai fang shi tabs

: anyone has the guan huai fang shi tabs pls send.

Re: guan huai fang shi tabs

: : anyone has the guan huai fang shi tabs pls send.
ÃöÃh¤è¦¡.....GuanHuaiFangShi..

Tab by : aaahni

INTRO :
C Em Dm G G/Eb
----------------- 3---------------- ---------------0---------------- ------0--------1---------------- ----------- ---------------------
-------1-------------------1------ ------0-----------------0------- ---------3--------3-----3----- - ----0------ ---0---------0-----
----------0------------0-----0---- ---2-----2----------0-----0---- --2-------2---------2----2----- ------0--- --0---0----------0-
---2---------2------2----------2- -----------2------2---------2-- 0----------------------------0-- -0------0- 1------------1-----
3---------------------------------- -------------------------------- --------------------------------- ----------- --------------------
----------------------------------- 0-------------------------------- --------------------------------- 3 --------- --------------------

C Em Dm G G/Eb
-------------------------0--------- ----------------0---------------- -----1--------0-------1h-------- ----------- ------3---------
----1----------1----------1------- -----0-----------------0--------- ---------3--------3-------3------ ----0------ ---0------0----
----------0----------0------0----- ---2------2----------0-----0---- --2-------2---------2-------2---- -----0---- --0----------0--
--2---------2-----2-----------2-- -2----------2-----2----------2-- 0--------------------------------- -0-----0-- 1---------------
3---------------------------------- --------------------------------- ----------------------------------- ----------- ----------------
----------------------------------- 0--------------------------------- ----------------------------------- 3 --------- -----------------

C G Am Em
±I¹æ¶¦b¤ß¨Æ·K ÀH¤â¤¤¤@¨Ç¶Ë·P
F C F G
¤£Åý¬P¬P¨Ó¿s±´ §ä­Ó¨IÀqªº©]±ß

C G Am Em
§ä­Ó¨IÀqªº©]±ß ¤£Åý¬P¬P¨Ó¿s±´
F G F G C (FILL 1)*
ÀH¤â¤¤¤@¨Ç¶Ë·P ±I¹æ¶¦b¤ß¨Æ·K

CHORUS :

C G Am Em
§ÚªºÃöÃh¤è¦¡¬O§AµLªk¹îıªº´d²D
F C Dm G
¥u¯à¦b§A¤£¸g·N¬O¤~Âê¤W§Ú¤ß©Ð
C G Am Em
§A©¹±`ªº¿Ë¤Á¤Íµ½ ¬O§Ú¤µ¥Íªº¿ò¾Ñ
F C Dm G C
¨ü¶Ë¦ZµL®¬ªº®I¦b¤£¬yÅSªºÁy¤W

GUITAR SOLO :
(Am) (F)
--------------0-------------- --0----------------------------- --1----------------------------- ----------------0-----------
-1--1--1/3-------3--0----- --1----------0--0h1--0-------- --1--------------------------1- ----1--1--1/3----3--0-----
-------------------------0--- --2----2-2--------------0------ --2---------0-0h2-------0---- -------------------------0--
----------------------------- --2------------------------2--- - --3-----3-3---------3--2------ -----------------------------
----------------------------- --0------------------------------ -------------------------------- -----------------------------
----------------------------- ---------------------------------- -------------------------------- -----------------------------

(C)
-0--3--3--0-------3--3--- ----5--8--7------------------------------------- ------5--8--5--------3-3-----5--3------0-- ------------------
-1------------1/3--------- --------------8---6-6---5-5h6---6p5--5--3--1 ---6------------5\3---------------3\1------ -0-0-------------
-0------------------------- --------------------------------------------------- --------------------------------------------- -------2-2-------
-2------------------------- --------------------------------------------------- --------------------------------------------- -------------0----
-3------------------------- --------------------------------------------------- --------------------------------------------- ------------------
---------------------------- -------------------------------------------------- --------------------------------------------- ------------------

....repeat from the start......

note :

C(FILL 1)* = need fast =

-----------------------0---0---
-----1----------------1----1---
---0------0----0-----0----0---
-------------2--------2----2---
-3--------------------3----3---
---------------------------------

/ = slide up
\ = slide down
h = hammer on
p = pull off

Re: guan huai fang shi tabs

i want guai huai fang shi tabs too.

Re: guan huai fang shi tabs

: anyone has the guan huai fang shi tabs pls send.

Re: guan huai fang shi tabs

: : anyone has the guan huai fang shi tyric pls send.

Re: guan huai fang shi tabs

: : : anyone has the guan huai fang shi lyric pls send.

Re: guan huai fang shi tabs

: : anyone has the guan huai fang shi tabs pls send.

Re: pian wo zi ji mei you ai guo Tabs

: : : anyone has the pian wo zi ji mei you ai guo Tabs pls send.

Post new comment

The content of this field is kept private and will not be shown publicly.
CAPTCHA
This question is for testing whether you are a human visitor and to prevent automated spam submissions. Do not include any spaces in your answer.
Image CAPTCHA
Copy the characters (respecting upper/lower case) from the image.

Contact | Contents | Privacy Policy | Forum

This site is published by Hitsquad Pty Ltd. Copyright © 1999 - 2017 , All Rights Reserved.