HERE ARE SOME GREAT TABS & CHORDS...download right now...!!!

Advertisement
Posted by ARINDAM RAY on Fri, 05/07/04 - 05:35:05.

######## CHURALIYA HAI ###########
------------------------------------------------------------------------------
E|--5--5-5---5--5-5---5--5-5---5--5-5---0-------0-------
B|--------------------------------------1--[0]--1-[0]---
G|--------------------------------------2-------2-------
D|--------------------------------------2-------2-------
A|--------------------------------------0-------0-------
E|------------------------------------------------------
a a a a a a a a a a a a Am Am
--------------------------------------------------------------------------------

E|------------------------------------------------------
B|---------------1-0--------------1-0-------------------
G|------2------------2---2------------2-----------------
D|--2----------2-------2--------2---------3-------------
A|--------------------------------------3---------------
E|------------------------------------------------------
e a e c b a e a e c b a c f
--------------------------------------------------------------------------------

E|---------------------------------------0--------------
B|-----0-------------------0-----------0---0------------
G|--------2------2-----------2-1----1--------1-----2----
D|-----------3-0-------2-0--------2--------------2------
A|--3---------------------------------------------------
E|------------------------------------------------------
c b a f d a e d b a g# e g# b e b g# e a
--------------------------------------------------------------------------------

E|------------------------------------------------------
B|---------1--0---------0-------------------------------
G|--2--2---------2---2------2--0------------------------
D|---------------------------------0--------------------
A|------------------------------------------------------
E|------------------------------------------------------
a a c b a a b a g d
Chura liya hai tumne jo dil ko

E|----------------------------------------------------
B|--------1--0----------0-------------------------------
G|--2--2---------2---2-----2--1-----------------------------
D|----------------------------------------------------
A|----------------------------------------------------
E|----------------------------------------------------
a a c b a a b a g#
Nazar nahin churaana sanam

Next two lines ... same as bove two lines ...
Badalke meri tum zindagaani
Kahin badal na jaana sanam

--------------------------------------------------------------------------------

E|------------------------------------------------------
B|--3---3--3-3/5-3-0-------3--3--3\5--3-0---------------
G|------------------------------------------------------
D|------------------------------------------------------
A|------------------------------------------------------
E|------------------------------------------------------
d, d d de d b d d d e d b
Oh, le liya dil, haai mera dil

E|------------------------------------------------------
B|--2-----2--0------2---0-----2--0----------------------
G|---------------2---------2-------2----2-2-------------
D|------------------------------------------------------
A|------------------------------------------------------
E|------------------------------------------------------
c# c# b a c# b a c# b a a a
Haai dil lekar mujhko na behlaana
--------------------------------------------------------------------------------

Chura liya hai tumne jo dil ko
Nazar nahin churaana sanam
Badalke meri tum zindagaani
Kahin badal na jaana sanam
--------------------------------------------------------------------------------

E|------------------------------------------------------
B|----0--1-3-3-3--5--3---1--0---------------------------
G|--2--------------------------2-0--1---1--1---1--------
D|------------------------------------------------------
A|------------------------------------------------------
E|------------------------------------------------------
a b c d d d e d c b a b c c c c
Bahaar banke aaoon kabhi tumhaari duniya mein

E|------------------------------------------------------
B|----0--1--3-3-3-5---3---1---0---1---------------------
G|-2----------------------------2---2-2---2-2-----------
D|------------------------------------------------------
A|------------------------------------------------------
E|------------------------------------------------------
a b c d d d e d c b a c a a a a
Guzar na jaaye yeh din kahin isi tamanna mein
--------------------------------------------------------------------------------

Tum mere ho, ho tum mere ho
Aaj tum itna vaada karte jaana
Chura liya
--------------------------------------------------------------------------------

The melody in between.. Played by the HERO..in the movie
E|------0----------------------------------------------
B|------------------------0----------------------------
G|---2-----2--2--2--2--2-----2--0----------------------
D|-----------------------------------------------------
A|-----------------------------------------------------
E|-----------------------------------------------------
a e a a a a a b a g

E|-----------------------------------------------------
B|------3--------------0--1----------------------------
G|---0-----0--0--0--0--------2-------------------------
D|-----------------------------------------------------
A|-----------------------------------------------------
E|-----------------------------------------------------
g d g g g g b c a
--------------------------------------------------------------------------------

Chura liya hai tumne jo dil ko
Nazar nahin churaana sanam
Badalke meri tum zindagaani
Kahin badal na jaana sanam
--------------------------------------------------------------------------------

########## DIL KYA KARE ##############

Intro Music.....
E|-4--6-----4--6--4--7--4--7--7---4--6-----6--6--------|
B|------4-----------------------6-------7--------------|
G|-----------------------------------------------------|

E|-------6-----------------------------4-4----------4-4|
B|----7-----7-9-7-9-7-9-7-9----4-4--7-------4-4--7-----|
G|-8---------------------------------------------------|

--------------------------------------------------------------------------------

E|---------6--7----6------6--9----6--9-6-------7--6----|
B|-----9---------------9------------------9----------9-|
G|-8---------------------------------------------------|
Dil Kya Karey, Jab Kisi se, Kisi ko Pyar Ho Jaye

E|--------6--7----6------6--9----6-9-6-------7--6------|
B|-----9---------------9----------------9----------9---|
G|-8---------------------------------------------------|
Jaane Kahan, Kab Kisiko, Kisise Pyar Ho Jaye
--------------------------------------------------------------------------------

E|-11----11--11-9--11-11--9--11-11-9-------------------|
B|--------------------------------------9-9------------|
G|-----------------------------------------------------|
ho.. Oonchi Oonchi Deewaron Si

E|---------9-9--11--9---7---7--------------------------|
B|----9-9----------------------------------------------|
G|-----------------------------------------------------|
Iss Duniya Ki Rasmein

E|--11--11-9--11-11--9--11-11--9-----------------------|
B|------------------------------------9--9-------------|
G|-----------------------------------------------------|
Na Kuch Tere Bas Mein Julie

E|---------9-9---11--9---7---7-------------------------|
B|----9-9-----------------------------------7--9-------|
G|-----------------------------------------------------|
Na Kuch Mere Bas Mein
--------------------------------------------------------------------------------
The music in between

E|--------13-13----13-11----13-13--------11-11---11-9----11-11--|
B|--11-13-------11-------13---------9-11-------9------11--------|
G|--------------------------------------------------------------|

E|--------13-13----13-11----13-13--------11-11---11-9----11-11--|
B|--11-13-------11-------13---------9-11-------9------11--------|
G|--------------------------------------------------------------|

Better if played at a higher pitch...
E|---6--4--7--6--4--4--6----------6-4-6-4------4----------------|
B|-4---------------------------4----------6--6------------------|
G|--------------------------------------------------------------|

E|---6--4--7--9--6--4-------------6-4-6-4------4----------------|
B|-4---------------------------4----------6--6------------------|
G|--------------------------------------------------------------|

--------------------------------------------------------------------------------

E|----------9-9-------------------9-9------------------|
B|---9-9-9------11--9------9-9-9-------11-9------------|
G|-----------------------------------------------------|
Jaise Parbat Pe Ghata Jhukti Hai

E|----------9-9--------------------9--9----------------|
B|---9-9-9------11--9------9-9-9---------11-9----------|
G|-----------------------------------------------------|
Jaise Saagar Mein Lehar Uthti Hai

E|---11-9--11-9--11-9------------9---------------------|
B|--------------------11--9----9-------11-9-11-7-9-----|
G|-----------------------------------------------------|
Aise Kisi Chehre Pe, Nigaah Rukti Hai
--------------------------------------------------------------------------------

E|-11----11--11-9--11-11--9--11-11-9-------------------|
B|------------------------------------9-9--------------|
G|-----------------------------------------------------|
Ho.. Rok Nahin Sakti Nazron Ko

E|---------9-9--11--9---7---7--------------------------|
B|----9-9----------------------------------------------|
G|-----------------------------------------------------|
Duniya Bhar Ki Rasmein

E|--11--11-9--11-11--9--11-11--9-----------------------|
B|------------------------------------9--9-------------|
G|-----------------------------------------------------|
Na Kuch Tere Bas Mein Julie

E|---------9-9---11--9---7---7-------------------------|
B|----9-9-----------------------------------7--9-------|
G|-----------------------------------------------------|
Na Kuch Mere Bas Mein

E|---------6--7----6------6--9----6--9-6-------7--6----|
B|-----9---------------9------------------9----------9-|
G|-8---------------------------------------------------|
Dil Kya Karey, Jab Kisi se, Kisi ko Pyar Ho Jaye

E|--------6--7----6------6--9----6-9-6-------7--6------|
B|-----9---------------9----------------9----------9---|
G|-8---------------------------------------------------|
Jaane Kahan, Kab Kisiko, Kisise Pyar Ho Jaye
--------------------------------------------------------------------------------

Aa Maein Teri Yaad Mein Sab Ko Bhuladoon
Duniya Ko Teri Tasveer Banadoon
Mera Bas Chale To Dil Cheer Ke Dikhadoon
Daud Raha Hai Saath Lahu Ke Pyar Tera Nas Nas Mein
Na Kuch Tere Bas Mein Julie Na Kuch Mere Bas Mein
Dil Kya Karey Jab Kisise Kisiko Pyar Ho Jaye

####### KYON CHALTI HAI PAWAN #######

E|-------------------------------------------------
B|---3-----3---1----------1------------------------
G|----------------3----3---------------------------
D|-------------------------------------------------
d d c a# a# c
Kyoon Chalti Hai Pawan

E|-------------------------------------------------
B|---3-----3---1----------1------------------------
G|----------------3----3---------------------------
D|-------------------------------------------------
d d c a# a# c
Kyoon Jhoomey Hai Gagan

E|----------------1--------------------------------
B|-1------3---4------4--3--4--3-1------3-1---------
G|------------------------------------------3-2----
D|-------------------------------------------------
c d d# f d# d d# d c d c a# a
Kyoon Machchalta Hai Mann

E|-------------------------------------------------
B|-------------------------------------------------
G|-----5--3--2-5--3------------5---3--2-5--3-------
D|-3------------------------3----------------------
A|-------------------------------------------------
f c a# a c a# f c a# a c a#
Na Tum Jano Na Hum Na Tum Jano Na Hum
-----------------------------------------------------------
Kyoon Aati Hai Bahar
Kyoon Lut Ta Hai Qaraar
Kyoon Hota Hai Pyaar
Na Tum Jano Na Hum
Na Tum Jano Na Hum...
--------------------------------------------------------

E|------1-1-----3--1-----------1-1----3--1---------
B|-3--4-----4-------------3-4------4---------------
G|-------------------------------------------------
d d# f f d# g f d d# f f d# g f
ye Madhoshiyaan, Ye Tanhaiyaaan

E|--------------1----------------------------------
B|-1-3--4--4--3------4---4--3---1-1--4-1-----------
G|-------------------------------------------------
c d d# d# d f d# d# d c c d# d
Tasavur Mein Hain Kis Ki Parchaiyaan

-------------------------------------------------------

Ye Bheega Samaa, Umangein Jawan
Mujhe Ishq Le Ja Raha Hai Kahan
Kyoon Goom Hai Har Dishaa
Kyoon Hota Hai Nashaa
Kyoon Aata Hai Mazaa
Na Tum Jano Na Hum
Na Tum Jano Na Hum
------------------------------------------------------

The melody in between....

E|----------------------------------------------------------
B|----------------------------------------------------------
G|----------------4-h6-6---------------4--------6\4---------
D|-----5/7-7-7-7---------6-6-6-4-6-7-6---7-6-4------4/6-----
A|--4----------------------------------------------------5--
E|----------------------------------------------------------

E|------5-5-5-9-7-9-10-9-7-------------7--------------------
B|-------------------------10-9-7-9-10---10-9-7-------------
G|-4/6------------------------------------------7/9---------
D|--------------------------------------------------9\7-----
A|------------------------------------------------------7---
E|----------------------------------------------------------
-------------------------------------------------------------

Dhadakta Bhi Hai, Tadapta Bhi Hai
Ye Dil Kyoon Achanak Bahekta Bhi Hai

Mahekta Bhi Hai, Chahekta Bhi Hai
Ye Dil Kya Waffa Ko Samajhta Bhi Hai

Kyoon Milti Hai Nazar
Kyoon Hota Hai Assar
Kyoon Hoti Hai Sahar
Na Tum Jano Na Hum
Na Tum Jano Na Hum

Kyoon Chalti Hai Pawan
Kyoon Jhoomey Hai Gagan
Kyoon Machchalta Hai Mann
Na Tum Jano Na Hum

Kyoon Aati Hai Bahar
Kyoon Lut Ta Hai Qaraar
Kyoon Hota Hai Pyaar
Na Tum Jano Na Hum
Na Tum Jano Na Hum...
---------------------------------------------------------

##### NEELE NEELE AMBAR PAR ##########

E---------------------------------------------------------------------------
B---------------------------------------------------------------------------
G------2-------3--2--3--2--3--2--3--2-------0-2-0----0---------------0------
D--0-----------------------------------------------3----3--2--0------2------
A----------------------------------------------------------------0---0------
E---------------------------------------------------------------------------
--------------------------------------------------------------------------------

E------1---5--3----3--5-3-------------------3----1-3-1----------------------
B--3-----------------------5--------------5------------3--------------------
G------------------------------------5--------------------------------------
D---------------------------------------------------------------------------
A---------------------------------------------------------------------------
E---------------------------------------------------------------------------
neele neele ambar par, chaand jab aaye

E------1---5--3--------------------3---1------------------------------------
B--3--------------5------------5-----------3--------------------------------
G-------------------------5-------------------------------------------------
D---------------------------------------------------------------------------
A---------------------------------------------------------------------------
E---------------------------------------------------------------------------
pyaar barasaae, hamako tarasaaye

E----------------1----10---10-10------10--------10----8---8--8-8-8----------
B---3------3------------------------------10--------------------------------
G------2--------------------------------------------------------------------
D---------------------------------------------------------------------------
A---------------------------------------------------------------------------
E---------------------------------------------------------------------------
aisaa koii saathii ho aisaa koii premii ho

E------5--8---6---6---6--8-6-5----------------------------------------------
B--6------------------------------------------------------------------------
pyaas dil kii bujhaa jaae
--------------------------------------------------------------------------------

E------1---5--3----3--5-3-------------------3-------------------------------
B--3-----------------------5--------------5------5-6-8-6--------------------
G------------------------------------5-------------------7------------------
D---------------------------------------------------------------------------
neele neele ambar par, chaand jab a.aye

E---------5--3--------------------3-----------------------------------------
B-----5-----------5------------5-----5-6/8----------------------------------
G--7-----------------------5----------------7-------------------------------
D---------------------------------------------------------------------------
pyaar barasaae, hamako tarasaaye

E------------5---10--10-10-10------------------10---8---8--8-8-8------------
B------------------------------------------10-------------------------------
G--7-----7------------------------------10----------------------------------
D------7--------------------------------------------------------------------
A---------------------------------------------------------------------------
E---------------------------------------------------------------------------
aisaa koI saathii ho aisaa koI premii ho

E------5--8---6---6---6--8-6-5----------------------------------------------
B--6------------------------------------------------------------------------
G---------------------------------------------------------------------------
pyaas dil kii bujhaa jaae
--------------------------------------------------------------------------------

The MUSIC IN BETWEEN

E---------------------------------------------------------------------------
B---------------------------------------------------------------------------
D--2-4----5---7--8-8/9--9-9-9---9-9-h11-----9------9--11-11-11/12-12-12-12--
A----------------------------------------13-----10--------------------------
E---------------------------------------------------------------------------

E--------------------------------------------------5-5-5-5---3-3-3-3---1-1-1-1
B----------------------7--h9-h9-h9----5-h7-h7-h7---6-6-6-6---5-5-5-5---3-3-3-3
G---7-7-h9------9-7-9--------------7---------------7--------------------------
D-----------11----------------------------------------------------------------
A-----------------------------------------------------------------------------
E-----------------------------------------------------------------------------

E---------------------------------------------------------------------------
B------1--------------------------------------------------------------------
G--2-3---3-2-0---0-2-0------------------------------------------------------
D--------------3-------3-0--------------------------------------------------
A---------------------------------------------------------------------------
E---------------------------------------------------------------------------
--------------------------------------------------------------------------------

E--10--10--10---10--10--10--10---------10--12--10---8----------------8------
B-------------------------------------------------------10----10-10---------
G---------------------------------------------------------10----------------
D---------------------------------------------------------------------------
A---------------------------------------------------------------------------
E---------------------------------------------------------------------------
ho, uunche uunche parvat jab chuumate hai ambar ko

E--6---6---6----6--6--6---------6---8----------------------8----------------
B---------------------------------------9----------9-9-9--------------------
G------------------------------------------10-10----------------------------
D---------------------------------------------------------------------------
A---------------------------------------------------------------------------
E---------------------------------------------------------------------------
pyaasaa pyaasaa ambar jab chuumataa hai saagar ko
--------------------------------------------------------------------------------

E---------------------------------------------------------------------------
B--------10--8-8-10-8--------------------8----6-6--8-6----------------------
G-----10---------------999------------9-----------------7-7-7---------------
D--12----------------------------10-----------------------------------------
A---------------------------------------------------------------------------
E---------------------------------------------------------------------------
pyaar se kasane ko baaho.n me.n basane ko

E---------------------------------------------------------------------------
B----------10--8-10--8-------------------8--6--8-6--------------------------
G-----10---------------9--------------9------------7------------------------
A---------------------------------------------------------------------------
D--12------------------------------10---------------------------------------
E---------------------------------------------------------------------------
dil meraa lalachaaye koI to aa jaaye
--------------------------------------------------------------------------------

E------------5---10--10-10-10------------------10---8---8--8-8-8------------
B------------------------------------------10-------------------------------
G--7-----7------------------------------10----------------------------------
D------7--------------------------------------------------------------------
A---------------------------------------------------------------------------
E---------------------------------------------------------------------------
aisaa koI saathii ho aisaa koI premii ho

E------5--8---6---6---6--8-6-5----------------------------------------------
B--6------------------------------------------------------------------------
E---------------------------------------------------------------------------
A---------------------------------------------------------------------------
pyaas dil kii bujhaa jaae
--------------------------------------------------------------------------------

Neele Neele ambar per
SAME AS ABOVE

--------------------------------------------------------------------------------
The MUSIC IN BETWEEN

E---------------------------------------------------------------------------
B---------------------------------------------------------------------------
G---2--2--2---2-2-2-2-2-2-2-2-2-2-2-2-2-2-h3-h4-h5-2------------------------
D---0--2--0------------------------------------------2-h3-h4-h5-2-----------
A---------------------------------------------------------------------------
E---------------------------------------------------------------------------

E-------------------------------------------------------------------0-------
B------1-1-3-1----1-------------------------------------------------0-------
G--2-3----------3---3--2--3--2--0--2--0-----0-----------------------0-------
D----------------------------------------3-----3--2--3--2--0--2--0--2-------
A-------------------------------------------------------------------0-------
E---------------------------------------------------------------------------

E---------------------------------------------------------------------------
B---------------------------------------------------------------------------
G------------------------------------------0-0-0-0-2-2-2-2-3-3-3-3----------
D------------------0-0-0-0-2-2-2-2-3-3-3-3----------------------------------
A--1-1-1-1-3-3-3-3----------------------------------------------------------
E---------------------------------------------------------------------------

E-----------------------------------------------------1-1-1-1-3-3-3-3--3--3-
B------------------------------------1-1-1-1-3-3-3-3-------------------4--4-
G-----------0-0-0-0-2-2-2-2-3-3-3-3------------------------------------5--5-
D--3-3-3-3------------------------------------------------------------------
A---------------------------------------------------------------------------
E---------------------------------------------------------------------------
--------------------------------------------------------------------------------

ho, thande thande jhonke
jab baalon ko sahalaaen
tapatii tapatii kiraNen
jab gaalon ko chhu jaen
saanson kii garamii ko
haathon kii naramii ko
dil meraa tarasaae
koI to chhU jaye
aisaa koI saathii ho
aisaa koI premii ho
pyaas dil kii bujhaa jAe
neele neele ...

chham chham karataa saavan
bundon ke baan chalae
satarangii barasaaton men jab
tan man bhIgaa jaae
pyaar men nahaane ko
duub hii jaane ko
koi to aa jae
khvaab jagaa jaaye
aisaa koI saathii ho
aisaa koI premii ho
pyaas dil kii bujhaa jae
neele neele ...

######## O OH JANE JANA #########

E|--------------------------------------------------|
B|----------5--3-5-1------------3-3---0----0--------|
G|--2--2-2------------------------------2----2------|
D|-----------------------------------------------0--|
a a a e d e c, d d b a b a g

E|--------------------------------------------------|
B|------0-0-0--0-------------5---3-5--1-3--0-1------|
G|-0--0--------------2--2-2---------------------2---|
D|--------------------------------------------------|
g g b b b b, a a a e d e c d b c a
=====================================================

E|--------------------------------------------------|
B|--1--1-0----0-------------3-3----0-----0----------|
G|---------2----1--------------------2-----2--0-----|
D|--------------------------------------------------|
c c b a b c d d b a b a g
o o jaane jaana dhoonde tujhe deewaana

E|--------------------------------------------------|
B|----0-0-0-0--0-0-5--------5-5-0-1-1-0-------------|
G|-0------------------------------------2-----------|
D|--------------------------------------------------|
g b b b b b b e e e b c c b a
sapno mein roz aaye aa jindagi mein aana

=====================================================

E|----0---------------------------------------------|
B|------1-----3--0-------------0--1-----------------|
G|-2--------2---------0-0---2--------2--------------|
D|--------------------------------------------------|
a e c a d b g g a b c a
Mera khwab mere khayalon ki rani
g a b b a

E|----------0---------------------------------------|
B|------1-----3-3------------0--1-------------------|
G|-2--2--------------0-0--2--------2----------------|
D|--------------------------------------------------|
a a c e d d g g a b c a
Kisi din banegi hamari kahani

E|-0--0-2---2--0------------0---0-------------------|
B|---------------3----3---3--------3--1-------------|
G|--------------------------------------------------|
D|--------------------------------------------------|
e e f# f# e d d d e e d c
Ai mere bekhudi yeh kasam maine lee

E|--------------------------0-------0-----0-----------|
B|-0-----0----1----0---1-3--------3-----3---3--1--0---|
G|----2---------2-----------------------------------2-|
D|----------------------------------------------------|
b a b c a b c d e d e d e d c b a
pyaar mein ek din meri jaan tujhe hai paana

o o jaane jaana dhoonde tujhe deewaana

#### SAAGAR JAISI AANKHONWALI #######

E|--------0-0-------------------------------------0------0-|
B|------2-----2------2-3-5-6-----6----------2-2-----2----2-|
G|--2---2---------------------9--9--------2-----2-----2--2-|
D|----2---------------------------------2----------------2-|
A|--0------------------------------------------------------|
E|---------------------------------------------------------|

E|---------------------------0-----------------------------|
B|--3--1--0------------------0-----------------------------|
G|-----------2--1/2--1---1---1-----------------------------|
D|---------------------2-----2-----------------------------|
A|---------------------------------------------------------|
E|---------------------------------------------------------|

E|--------------------------0--------0-------0-------------|
B|-------0-1-3-1-0------------0--------0-------0-----------|
G|--1--2-----------2-1---1------2--------2-------2---------|
D|---------------------2----------2--------2-------2-------|
A|---------------------------------------------------------|
E|---------------------------------------------------------|

E|--12---12----------12----------12----------------------10-11-11-11-11-11-11-11-11-11-11---|
B|----------13-12-10----13-12-10----13-12-10--9-10-12-13--------|
G|--------------------------------------------------------------------------|
D|--14----------------------------------------------------------------------|
A|--------------------------------------------------------------------------|
E|--------------------------------------------------------------------------|

E|--4-5-7-5-4-------4-5/7-7/8-8/10-10/12-------------------|
B|------------6-3-6----------------------------------------|
G|---------------------------------------------------------|
D|---------------------------------------------------------|
A|---------------------------------------------------------|
E|---------------------------------------------------------|

E|-----------------------------------------------0---------|
B|-----------------------------------------------2---------|
G|----1-----1-----1-----1-----1-----1------------2---------|
D|--3---3-2---2-3---3-2---2-3---3----------------2---------|
A|--------------------------------3---3--2-3-2-0-0---------|
E|---------------------------------------------------------|

E|--12-----------12----------12----------12----------------|
B|-----13-12-10-----13-12-10----13-12-10----13-12-10-------|
G|---------------------------------------------------------|
D|---------------------------------------------------------|
A|---------------------------------------------------------|
E|---------------------------------------------------------|

E|--12-13-12---12-13-12---12-13-12-13-12-13-12---0---------|
B|---------------------------------------------------------|
G|---------------------------------------------------------|
D|---------------------------------------------------------|
A|---------------------------------------------------------|
E|---------------------------------------------------------|
--------------------------------------------------------------------------------

E|----5-5-7----8-7--8----5---5---7--5---5------------------|
B|--5------------------------------------------------------|
G|---------------------------------------------------------|
D|---------------------------------------------------------|
e a a b c b c e e f# e e
Chehraa hai ya chaand khila hai

E|----5-5---7-8-7-8---5-------4----5-----------------------|
B|--5------------------------------------------------------|
G|---------------------------------------------------------|
D|---------------------------------------------------------|
e a a b c b c a g# a
Julf ghaneri shaam hai kya

E|-----7-7-10--10-7\5-5---3----2--3-2--3-------------------|
B|---5-----------------------------------------------------|
G|---------------------------------------------------------|
D|---------------------------------------------------------|
e b b d d b\a a g f# g f# g
Saagar jaisi aankhon waali

E|---0-5--5---7-8---7-8----5----4----5---------------------|
B|---------------------------------------------------------|
G|---------------------------------------------------------|
D|---------------------------------------------------------|
e a a b c b c a g# a
Yeh to bata tera naam hai kya
--------------------------------------------------------------------------------

Am E Am E Am E.......

Chehraa hai ya chaand khila hai
Julf ghaneri shaam hai kya
Saagar jaisi aankhon waali
Yeh to bata tera naam hai kya
--------------------------------------------------------------------------------

E|--0----------------------------0-----0-1-0--0-1-0--0-1-0-1-0-1-0-|
B|----1---0-1----------------0-1-----------------------------------|
G|------2-----2---0-2---1--2---------------------------------------|
D|--------------3-----2--------------------------------------------|
A|-----------------------------------------------------------------|
E|-----------------------------------------------------------------|
e c a b c a f g a e g# a b c e e f e e f e e f e f e f e

--------------------------------------------------------------------------------
E|-----0-0-0-----------------------------------------------|
B|------------1-1------------------------------------------|
G|-----------------2-2-----1---2--2---2--------------------|
D|----------------------------2----------------------------|
A|---------------------------------------------------------|
E|---------------------------------------------------------|
e e e c c a a g# ea a a
Are tu kya jaane teri khaatir

E|---------------------0-----------------------------------|
B|------1-0-1-------0----1--0---1--------------------------|
G|-------------2-2-----------------------------------------|
D|---------------------------------------------------------|
c b c a a b e c b c
Kitna hai betaab ye dil

E|-------0--0----------------------------------------------|
B|------------1--1---------------0---0---------------------|
G|-----------------2-----2--1--2---------------------------|
D|---------------------------------------------------------|
e e c c a a g# a b b
Tu kya jaane dekh raha hai

E|---------------------------------------------------------|
B|------1--0-----3--0--------------------------------------|
G|-----------2------------2------1---2---------------------|
D|---------------------------------------------------------|
c b a d b a g# a
kaise kaise khwab ye dil
--------------------------------------------------------------------------------

E|----------------------------------------0-1-0--0-1-0--0-1-0-1-0-1-0-|
B|------1-0------1-0------1-0-------1-0-------------------------------|
G|----2--------2--------2---------2-----------------------------------|
D|--2--------2--------2---------2-------------------------------------|
A|--------------------------------------------------------------------|
E|--------------------------------------------------------------------|
e a c b e a c b e a c b e a c b e f e e f e e f e f e f e
--------------------------------------------------------------------------------

E|---------------------------------------------------------|
B|---1-0---0-----------1--0---0----------------------------|
G|-----------2-2--2----2--------2---2-2--------------------|
D|---------------------------------------------------------|
A|---------------------------------------------------------|
E|---------------------------------------------------------|
c b b a a a ac b b a a a
Dil kahata hai tu hai yahan to

E|---------------------------------------------------------|
B|--1-0-3----------------0-0------2----2--2--2--2----------|
G|---------2-2-2--1----2----------2------------------------|
D|---------------------------------------------------------|
A|---------------------------------------------------------|
E|---------------------------------------------------------|
c b d a a a g# a b b ac# c# c# c# c#
jaata lamha thum jaaye waqt ka dariya

E|------------------------------0--------------------------|
B|--2--3-2---2--2--2------0-0-1-3---1-0--------------------|
G|----------------------0----------------2-2-1--1-1--------|
D|---------------------------------------------------------|
A|---------------------------------------------------------|
E|---------------------------------------------------------|
c# d c# c# c# c# g b b c de c b a a g# a a
bahte bahte is manjer mein jam jaaye

--------------------------------------------------------------------------------
toone deewaana dil ko banaya
is dil per ilzaam haikya
saagar jaisi aankhon waali
yeh to bata tera naam hai kya.

Ho aaj main tujhse door sahi
aur tu mujhse anjaan sahi
tera saath nahin paaon to
khair tera armaan sahi

--------------------------------------------------------------------------------

E|-------7-----7----------7-----7----5--7--8--10-8---5--7--8--7--8-|
B|--5--8----8--------5--8----8-------------------------------------|
G|-----------------------------------------------------------------|
la la la la la la la la la la la la la la la la la la la la
e g b g b e g b g b a b c d c a b c b c

E|--7--8-10--8-10---7--8--10--7-10------11-------11-14-12----------|
B|-------------------------------------------12--------------------|
G|-----------------------------------------------------------------|
la la la la la la la la la la la la la la la
b c d c d b c d b d d# b d# f# e
--------------------------------------------------------------------------------

E|----------------------------------------0-1-0--0-1-0--0-1-0-1-0-1-0-|
B|------1-0------1-0------1-0-------1-0-------------------------------|
G|----2--------2--------2---------2-----------------------------------|
D|--2--------2--------2---------2-------------------------------------|
A|--------------------------------------------------------------------|
E|--------------------------------------------------------------------|
e a c b e a c b e a c b e a c b e f e e f e e f e f e f e
--------------------------------------------------------------------------------

Ho ye armaan hai..
shor nahin ho
khaamoshi ke mele hoon
is duniyaan mein koi nahin ho
hum dono hee akele hoon.

tere sapne dekh raha hoon
aur mera ab kaam hai kya
saagar jaisi aankhon waali
yeh to bata tera naam hai kya,

Am E Am E am E....

Comment viewing options

Select your preferred way to display the comments and click "Save settings" to activate your changes.

Re: HERE ARE SOME GREAT TABS & CHORDS...download right now...!!!

thanks man really great "lead" that is indeed !!!!

do u have tabs or chord for dilko tumse pyar hua...

hi.. guys.. excellent job done uptil now .. can nebody help me with .. guitar tabs of dilko tumse pyar hua R.H.T.D.M

Post new comment

The content of this field is kept private and will not be shown publicly.
CAPTCHA
This question is for testing whether you are a human visitor and to prevent automated spam submissions. Do not include any spaces in your answer.
Image CAPTCHA
Copy the characters (respecting upper/lower case) from the image.

Contact | Advertise | Contents | Privacy Policy

This site is published by Hitsquad Pty Ltd. Copyright © 1999 - 2014 , All Rights Reserved.