MORE AMR DIAB TABS FOUND HERE ( WA7ASHTINI )

Posted by DeaD on Sat, 11/13/04 - 05:07:40.

Intro :

Piano Arranged For Guitar

|-1------1---|-0-----3-|-0----------0-----|-1-----5--|
|---1---1---1|----0----|----------0---0---|---3------|
|-----2------|------0--|--------0-------0-|-----2----|
|------------|---------|-----2------------|----------|
|------------|---------|---2--------------|-0--------|
|-1----------|-3-------|-0----------------|----------|

|-1---------1-----|-0-----3-|-0hp1---------0---||-1-0-1-|
|---------1---1---|---0-----|------------0---0-||-3-3-3-|
|-------2-------2-|-----0---|----------0-------||-------|
|-----3-----------|---------|--------2---------||-------|
|---3-------------|---------|------2-----------||-------|
|-1---------------|-3-------|-0----------------||-------|

Verse :

|-3-5-5-3-5-5-3-5-|3 times |-0-1-3-|
|-----------------|in the |-------|
|-----------------|verse |-------|
|-----------------|then -> |-------|
|-----------------| |-------|
|-----------------| |-------|

Am
3yonek shayfha
C
we 7asaes ena ana 3arefha
Cmaj7
sebeene bera7tee awsefha
F
maksoofa leeh

Am
Ka2nek ma3aya
C
ba2alek 3omr wayay
Cmaj7 (If you wanna continue with just C it's your choice
benfs el soora goaya I prefer the Cmaj7 x32000 )
F
men ad eeh

Dm G
seneen shayfek fey 27lamee
Bb Am
banadee 3aleeke domeene
Dm G
layale kont mesh 3ayesh
Bb C
we mestaneeke te7yeene

F Em
wa7shteene wa7shteene
Em D7
seneen bo3dek 3la 3aine
Dm C
layalee kont mesh 3ayesh
Bb C F
we mestaneeke t7yene

Translation :

I see your eyes
and they feel so familiar
just give me a moment to describe them
why should you be shy

it feels like you're with me
from ages right beside me
still the same picture inside me
for so long

for years you're in my dreams
calling for you to hold me
Nights I was dead
waiting for you to revive me

I Missed you I missed you
The years you were away were hard on me
Nights I was dead
waiting for you to revive me

Comment viewing options

Select your preferred way to display the comments and click "Save settings" to activate your changes.

tamer hosny

: Intro :

: Piano Arranged For Guitar

: |-1------1---|-0-----3-|-0----------0-----|-1-----5--|
: |---1---1---1|----0----|----------0---0---|---3------|
: |-----2------|------0--|--------0-------0-|-----2----|
: |------------|---------|-----2------------|----------|
: |------------|---------|---2--------------|-0--------|
: |-1----------|-3-------|-0----------------|----------|

: |-1---------1-----|-0-----3-|-0hp1---------0---||-1-0-1-|
: |---------1---1---|---0-----|------------0---0-||-3-3-3-|
: |-------2-------2-|-----0---|----------0-------||-------|
: |-----3-----------|---------|--------2---------||-------|
: |---3-------------|---------|------2-----------||-------|
: |-1---------------|-3-------|-0----------------||-------|

: Verse :

: |-3-5-5-3-5-5-3-5-|3 times |-0-1-3-|
: |-----------------|in the |-------|
: |-----------------|verse |-------|
: |-----------------|then -> |-------|
: |-----------------| |-------|
: |-----------------| |-------|

: Am
: 3yonek shayfha
: C
: we 7asaes ena ana 3arefha
: Cmaj7
: sebeene bera7tee awsefha
: F
: maksoofa leeh

: Am
: Ka2nek ma3aya
: C
: ba2alek 3omr wayay
: Cmaj7 (If you wanna continue with just C it's your choice
: benfs el soora goaya I prefer the Cmaj7 x32000 )
: F
: men ad eeh

: Dm G
: seneen shayfek fey 27lamee
: Bb Am
: banadee 3aleeke domeene
: Dm G
: layale kont mesh 3ayesh
: Bb C
: we mestaneeke te7yeene

: F Em
: wa7shteene wa7shteene
: Em D7
: seneen bo3dek 3la 3aine
: Dm C
: layalee kont mesh 3ayesh
: Bb C F
: we mestaneeke t7yene

: Translation :

: I see your eyes
: and they feel so familiar
: just give me a moment to describe them
: why should you be shy

: it feels like you're with me
: from ages right beside me
: still the same picture inside me
: for so long

: for years you're in my dreams
: calling for you to hold me
: Nights I was dead
: waiting for you to revive me

: I Missed you I missed you
: The years you were away were hard on me
: Nights I was dead
: waiting for you to revive me

Re: cheb khaled

: Intro :

: Piano Arranged For Guitar

: |-1------1---|-0-----3-|-0----------0-----|-1-----5--|
: |---1---1---1|----0----|----------0---0---|---3------|
: |-----2------|------0--|--------0-------0-|-----2----|
: |------------|---------|-----2------------|----------|
: |------------|---------|---2--------------|-0--------|
: |-1----------|-3-------|-0----------------|----------|

: |-1---------1-----|-0-----3-|-0hp1---------0---||-1-0-1-|
: |---------1---1---|---0-----|------------0---0-||-3-3-3-|
: |-------2-------2-|-----0---|----------0-------||-------|
: |-----3-----------|---------|--------2---------||-------|
: |---3-------------|---------|------2-----------||-------|
: |-1---------------|-3-------|-0----------------||-------|

: Verse :

: |-3-5-5-3-5-5-3-5-|3 times |-0-1-3-|
: |-----------------|in the |-------|
: |-----------------|verse |-------|
: |-----------------|then -> |-------|
: |-----------------| |-------|
: |-----------------| |-------|

: Am
: 3yonek shayfha
: C
: we 7asaes ena ana 3arefha
: Cmaj7
: sebeene bera7tee awsefha
: F
: maksoofa leeh

: Am
: Ka2nek ma3aya
: C
: ba2alek 3omr wayay
: Cmaj7 (If you wanna continue with just C it's your choice
: benfs el soora goaya I prefer the Cmaj7 x32000 )
: F
: men ad eeh

: Dm G
: seneen shayfek fey 27lamee
: Bb Am
: banadee 3aleeke domeene
: Dm G
: layale kont mesh 3ayesh
: Bb C
: we mestaneeke te7yeene

: F Em
: wa7shteene wa7shteene
: Em D7
: seneen bo3dek 3la 3aine
: Dm C
: layalee kont mesh 3ayesh
: Bb C F
: we mestaneeke t7yene

: Translation :

: I see your eyes
: and they feel so familiar
: just give me a moment to describe them
: why should you be shy

: it feels like you're with me
: from ages right beside me
: still the same picture inside me
: for so long

: for years you're in my dreams
: calling for you to hold me
: Nights I was dead
: waiting for you to revive me

: I Missed you I missed you
: The years you were away were hard on me
: Nights I was dead
: waiting for you to revive me

Post new comment

The content of this field is kept private and will not be shown publicly.
CAPTCHA
This question is for testing whether you are a human visitor and to prevent automated spam submissions. Do not include any spaces in your answer.
Image CAPTCHA
Copy the characters (respecting upper/lower case) from the image.

Contact | Advertise | Contents | Privacy Policy | Forum

This site is published by Hitsquad Pty Ltd. Copyright © 1999 - 2017 , All Rights Reserved.