alternative rock guitar tabs

alternative rock guitar tabs

lots of tabs for nirvana, silverchair, bush...etc

TABs for lotsa alternative rock bands. Just made it and I'm updating frequently, I'll accept requests for bands listed on my site. Just e-mail them to sk8er_21_@hotmail.com

Comment viewing options

Select your preferred way to display the comments and click "Save settings" to activate your changes.

Re: Ben

: Does anyone have the tab/crds for 'Ben' by the Jackson 5?
thanks,
euler

re

I need tabs fot pink floyed(the wall)

Re: re

: I need tabs fot pink floyed(the wall).please contact me

I need My odipus(Kid Rock) Tabs

Can anybody find tabs for this song?
I really need them, could you e-mail them to me and post it for the rest of us?
Thanx in Advance

Bass tabs

Hey ya'll, I'm looking for bass tabs for Operate Annihlate by Powerman 5000, if you have any send them to me pleaz.

muscle museum

please send me a good version of muscle museum by muse it is such a good song thanks..

pleassssssssssssssse

I need ben harper tabs for two habds of a prayer has ANY ONE got them.

i need kryptonite tabs....

does anyone have kryptonite tabs. i would really appreciate it if u could email them to me.....

Re: i need kryptonite tabs....

: does anyone have kryptonite tabs. i would really appreciate it if u could email them to me.....

here it is!

http://www.olga.net/cgi-bin/php/dynamic/browse.php?printer=1&local=main/3/3_doors_down/kryptonite.tab

SPIDERBAIT - Bessy's Last Journey.

Tabs, Notation, Anything - ANYONE?

tabs

I need some 311 tabs

Re: tabs

need nelly "ride with me"

stan

How about some taabs for 'STAN' by eminem/dido?

stan

Great duet and song.

Re: stan

: How about some taabs for 'STAN' by eminem/dido?

Dido - Thankyou....

http://www.geocities.com/fan_dido/guitartab.html

Re: stan

: How about some taabs for 'STAN' by eminem/dido?
That is a great song!!!!!!!!!!!!!!I love it!!

I need GOOD basket case bass tabs!!!!!!!!

I need GOOD basket case bass tabs!!!!!!!!
please send me mail soon!!!!!!!!!!
tnx!

Re: these are ok.

Transcribed by Justin Bailey

X = Mute Chord
Tune down half step
Eb Ab Db Gb Bb eb

NOTE:
If you don't want to follow my timing and mute marks then here's
the chords. The eaist ay to play this is not to be perfect.
Just listen to the cd and compare it w/ my mute marks and have
FUN!!!

REMEMBER.... This is NOT EXACTLY how I play it
Chords:

eb-|---------------------------|-0-------------------------|
bb-|---------------------------|-0-------------------------|
gb-|9-----6--------------------|-1--4--6-----2-------------|
db-|9--9--6--6--7--------------|-2--4--6--6--2-------------|
ab-|7--9--4--6--7--------------|-2--2--4--6--0-------------|
eb-|---7-----4--5--------------|-0--------4----------------|

Fig 1

eb-|---------------------------|---------------------------|
bb-|---------------------------|---------------------------|
gb-|9-----------9--------------|-----6------6--------------|
db-|9-9-9-9-9-9-9-9---9------9-|-6-6-6--6-6-6-6---6-----6--|
ab-|7-7-7-7-7-7-7-9-9-9--9-9-9-|-4-4-4--4-4-4-6-6-6-6-6-6--|
eb-|--------------7-7-7--7-7-7-|--------------4-4-4-4-4-4--|
x x x x x x x x x x x x x x x
(Do you have the time........)
END FIG.1
eb-|---------------------------|---------------------------|
bb-|---------------------------|---------------------------|
gb-|---------------9---9-----9-|---------------------------|
db-|-----7----- 7--9-9-9-9-9-9-|-9-9--------9---9-----9----|
ab-|-7-7-7--7-7-7--7-7-7-7-7-7-|-9-9--9-9-9-9-9-9-9-9-9----|
eb-|-5-5-5--5-5-5--------------|-7-7--7-7-7-7-7-7-7-7-7----|
x x x x x x x x x x x x x x

Fig 2
END FIG.2
eb-|---------------------------|---------------------------|
bb-|---------------------------|---------------------------|
gb-|---------------------------|-9-9--------9---9-----9----|
db-|-7-7--------7-9---9------9-|-9-9--9-9-9-9-9-9-9-9-9----|
ab-|-7-7--7-7-7-7-9-9-9--9-9-9-|-7-7--7-7-7-7-7-7-7-7-7----|
eb-|-5-5--5-5-5-5-7-7-7--7-7-7-|---------------------------|
x x x x x x x x x x x x
(Sometimes I give my self the Creeps.......)

Fig 3
END FIG.3
eb-|---------------------------|---------------------------|
bb-|---------------------------|---------------------------|
gb-|---------------------------|---------------------------|
db-|-7-7-------9---------------|---------------------------|
ab-|-7-7-7-7-7-9-9-9-9-9-9-9---|---------------------------|
eb-|-5-5-5-5-5-7-7-7-7-7-7-7---|---------------------------|
x x x x x x x x x
(It all Keeps adding up.......)
Fig 4
END FIG.4
eb-|---------------------------|---------------------------|
bb-|-8----6-6-x-5--------------|---------------------------|
gb-|-9----7-7-x-6--------------|---------------------------|
db-|-9----7-7-x-6--------------|---------------------------|
ab-|-7----5-5-x-4--------------|---------------------------|
eb-|---------------------------|---------------------------|

(I think I'm Cracking up........)
Fig 5 Fig.6
END FIG.5 END FIG.6
eb-|---------------------------|---------------------------|
bb-|---------------------------|---------------------------|
gb-|---------------------------|-9-x-4-4-x-6-6-x-4-4-------|
db-|-7-7--7-7-7-9--9-9--9-9-9--|-9-x-4-4-x-6-6-x-4-4-------|
ab-|-7-7--7-7-7-9--9-9--9-9-9--|-7-x-2-2-x-4-4-x-2-2-------|
eb-|-5-5--5-5-5-7--7-7--7-7-7--|---------------------------|

(Am I just paranoid........)

Fig.7

eb-|-0--0-0-0-0----------------|---------------------------|
bb-|-0--0-0-0-0----------------|---------------------------|
gb-|-1--1-1-1-1-4--4-4-4-4-4---|6--6-6-6-6-6---------------|
db-|-2--2-2-2-2-4--4-4-4-4-4---|6--6-6-6-6-6-6--6-6-6-6-6--|
ab-|-2--2-2-2-2-2--2-2-2-2-2---|4--4-4-4-4-4-6--6-6-6-6-6--|
eb-|-0--0-0-0-0----------------|-------------4--4-4-4-4-4--|

(I went to a shrink.......)
END FIG.7
eb-|-----------0-0-0-0-0------------|----------------------|
bb-|-----------0-0-0-0-0------------|----------------------|
gb-|-2-2-2-2-2-1-1-1-1-1-4-4-4-4-4-4|----------------------|
db-|-2-2-2-2-2-2-2-2-2-2-4-4-4-4-4-4|----------------------|
ab-|-0-0-0-0-0-2-2-2-2-2-2-2-2-2-2-2|----------------------|
eb-|-----------0-0-0-0-0------------|----------------------|

Fig.8
END FIG.8
eb-|---------------------------|---------------------------|
bb-|---------------------------|---------------------------|
gb-|---------------------------|---------------------------|
db-|-7-------------------------|-7-7-7-7-7-7-7-7-----------|
ab-|-7-7-7-7-7-7-7-7-7-7-7-----|-7-7-7-7-7-7-7-7-----------|
eb-|-5-5-5-5-5-5-5-5-5-5-5-----|-9-9-9-9-9-9-9-9-----------|
x x x x x x x x x x
(Grasping to control)
Fig.9 END FIG.9
eb-|---0-----0---------0---0---|---------------------------|
bb-|-----0-----0-------------0-|---------------------------|
gb-|-1---2---------------0-----|-------999-----------------|
db-|-2-----------6-6-6---x-----|--7-77-999-9--9-9-9-9-9-9--|
ab-|-------------4-4-4---7-----|--7-77-777-9--9-9-9-9-9-9--|
eb-|---------------------------|--5-55-----7--7-7-7-7-7-7--|
(STONED!!)
Fig.10
eb-|---0----0---------0---0----|---------------------------|
bb-|-----0----0-------------0--|------9--------------------|
gb-|-1---2--------------0------|------9---------------2---4|
db-|-2----------6-6-6---x------|--7-7-7-9-------------2-2-4|
ab-|------------4-4-4---7------|--7-7---9-------------0-2-2|
eb-|---------------------------|--0h5---7------15\7-----0--|

oops that turned out pretty fucked up.

How do you paste tabs in here without them looking fucked up?

you suck

your a looser hahahhahah

Re: you suck

This is crap you dumbass! You unimaginative Pig!!! You still Suck!!!!!!!!!!!!!!!!!!!!!!!!!!!

can you send me this song

Dolphins Cry by live Please i need the tabs and lyrics thanx

kriptonite -will u still call me superman guitar tab

kriptonite -will u still call me superman guitar tab
i need it realy quickly please

Re: kriptonite -will u still call me superman guitar tab

: kriptonite -will u still call me superman guitar tab
: i need it realy quickly please

If you're still interested... email me at evening_whirl@humpingaround.com
and i'll send you back the Tab for Kryptonite

Re: kriptonite -will u still call me superman guitar tab

: kriptonite -will u still call me superman guitar tab
: i need it realy quickly please

: i really want these tabs, you no

Re: kriptonite -will u still call me superman guitar tab

: : kriptonite -will u still call me superman guitar tab
: : i need it realy quickly please

: : send me these tabs pleas.

Re: kriptonite -will u still call me superman guitar tab

: kriptonite -will u still call me superman guitar tab
: i need it realy quickly please

<a href="http://members.nbci.com/eukie/kryptonite.txt">http://members.nbci.com/eukie/kryptonite.txt</a>

I NEED ANA'S SONG TABS

and metallica's dye dye my darling please

Re: I NEED ANA'S SONG TABS

can you send me some tabs on Bush please i would be so greatfull

I NEED ANA'S SONG TABS

and metallica's dye dye my darling please

---------------

i need a tabs for Under the bridge

I Need to find tablature for blur song_2

I Need to find tablature for blur song_2

Re: I Need to find tablature for blur song_2

: I Need to find tablature for blur song_2

hi!
i´m from germany and i got a webside for you.wher you can get more then song2 from blur.
home.earthlink.net/~dparrot1

Paula Cole and Tori Amos

I need tabs for paula coles "where have all the cowboys gone" and the tabs for tori amos "Cornflake girl" (here especially piano to guitar?

cornflake girl chords

try this but play around a bit:

Am / C / D / F repeated

Re: Paula Cole and Tori Amos

: I need tabs for paula coles "where have all the cowboys gone" and the tabs for tori amos "Cornflake girl" (here especially piano to guitar)

hey, i have cornflake girl tabs if you need them. I can type them up for you sometime. Just give me an email :)
-Lindsey Pleasants

Please help me find deep inside of you tabs or sheet music

Ive searched the internet , as far as i know possible , for well over a hour , and i cant find deep inside of you tab or sheet music anywhere , any where , could some one give me a location , or email me at
B98123@yahoo.com

ZioN

I need RHCP's, Cake's guitar chords

I'm begging you all, anybody, Pleaseee send meRHCP's and cake's guitar tabs

Where can I find the "Around the world" guitar chords by RHCP

Please send me chords or site name where I can find that. Thank you.

Where can I find the "Around the world" guitar chords by RHCP

: I'm begging you all, anybody, Pleaseee send meRHCP's and cake's guitar tabs

need matthew good band tabs and CHORDS

hi,
i'm really desperate for some chords and tabs on matthew good band's
beautiful midnight
Thanx!!!!!!!!!!!!!!!!!!!!!!!!!!!!!!!!!

tab

i need the greenday tab minority plz email thnks

Tab for 3eb Slow Motion

Man i really need to learn to play this song somebody help me out!

Re: Tab for 3eb Slow Motion

: Man i really need to learn to play this song somebody help me out!

Played with a slight distortion to get muted strings effect

Intro:

-----1p0--------------------------------------
---------1-3-----x----x-x-x--------3-----3----
---0----------0--x----x-x-x-------------------
--------------0--x----x-x-x------2-----2------
-3--------------------x-x-x----0-----0-----0--
-------------------1---------0----------------

-----1p0----------------------------------8-----------
---------1-3----------x-x-x--------3---6---------x-x--
---0----------0-------x-x-x------------5--5------x-x--
--------------0-------x-x-x------2---------------x-x--
-3--------------------x-x-x----0-----------------x----
-------------------1---------0------------------------
Verse 1:

-|-0-|-3-|-1-|-0-|----|-3-|--
-|-1-|-3-|-1-|-3-|----|-3-|--
-|-0-|-0-|-2-|-2-|-x4-|-0-|--
-|-2-|-0-|-3-|-2-|----|-0-|--
-|-3-|-2-|-3-|-0-|----|-2-|--
-|---|-3-|-1-|---|----|-3-|--
Chorus:

-|-0-|-3-|-0-|--|-0-|-3-|-0-|-1-|--|-0-|-3-|-0-|-------0-----0---0----
-|-1-|-3-|-1-|--|-1-|-3-|-1-|-1-|--|-1-|-3-|-1-|-----------1-----1--6-
-|-0-|-0-|-2-|--|-0-|-0-|-2-|-2-|--|-0-|-0-|-2-|-2-------2-----2-2--5-
-|-2-|-0-|-2-|--|-2-|-0-|-2-|-3-|--|-2-|-0-|-2-|-----2----------------
-|-3-|-2-|-0-|--|-3-|-2-|-0-|-3-|--|-3-|-2-|-0-|---0------------------
-|---|-3-|---|--|---|-3-|---|-1-|--|---|-3-|---|----------------------
Verse 2: ....... a most beautiful ruby red

-|-0-|-3-|-1-|-0-|------|-0-|-3-|-1-|--
-|-1-|-3-|-1-|-3-|------|-1-|-3-|-1-|--
-|-0-|-0-|-2-|-2-|--x3--|-0-|-0-|-2-|--
-|-2-|-0-|-3-|-2-|------|-2-|-0-|-3-|--
-|-3-|-2-|-3-|-0-|------|-3-|-2-|-3-|--
-|---|-3-|-1-|---|------|---|-3-|-1-|--
And at home ... my sister's eating paint chips again .....

-3---1----1-1-----3----3-3-----0----0-0-----1----1-1--
-3---1----1-1-----3----3-3-----1----1-1-----1----1-1--
-0---2----2-2-----4----4-4-----2----2-2-----2----2-2--
-0---3----3-3-----5----5-5-----2----2-2-----3----3-3--
-2---3----3-3-----5----5-5-----0----0-0-----3----3-3--
-3---1----1-1-----3----3-3------------------1----1-1--
I shut the door to her moaning .......

-1----1-1-----3----3-3-----0---0-0---0---0-0--
-1----1-1-----3----3-3-----1---1-1---1---1-1--
-2----2-2-----4----4-4-----2---2-2---2---2-2--
-3----3-3-----5----5-5-----2---2-2---2---2-2--
-3----3-3-----5----5-5-----0---0-0---0---0-0--
-1----1-1-----3----3-3------------------------
See my neighbor's ..........

-1----1-1-----3----3-3-----0---0-0---0-0-0-0--
-1----1-1-----3----3-3-----3---3-3---3-3-3-3--
-2----2-2-----4----4-4-----2---2-2---2-2-2-2--
-3----3-3-----5----5-5-----2---2-2---2-2-2-2--
-3----3-3-----5----5-5-----0---0-0---0-0-0-0--
-1----1-1-----3----3-3------------------------
There's an arc to his fist .......

-1--1--1--1--1--1--1-----1/3---
-1--1--1--1--1--1--1-----1/3---
-2--2--2--2--2--2--2-----2/4---
-3--3--3--3--3--3--3-----3/5---
-3--3--3--3--3--3--3-----3/5---
-1--1--1--1--1--1--1-----1/3---
What a beautiful thing ......

-0------0-------0------0-------0--------0----3---
-1--------1-----0--------0-----1------1------3---
-2--------------0--------------2-------------0---
-2--------------0--------------2-------------0---
-0--------------2--------------0-------------2---
----------------3----------------------------3---
Verse 3:

-0---3---1---0-------
-1---3---1---3-------
-0---0---2---2---x3--
-2---0---3---2-------
-3---2---3---0-------
-----3---1-----------
Chorus/Outro:

|-0-|-3-|-0-|-|-0-|-3-|-0-|-1-|-|-0-|-3-|-0-|-----0-----0-----|-3-|-0-
|-1-|-3-|-1-|-|-1-|-3-|-1-|-1-|-|-1-|-3-|-1-|---1-----1---1---|-3-|-1-
|-0-|-0-|-2-|-|-0-|-0-|-2-|-2-|-|-0-|-0-|-2-|-2-----2-------0-|-0-|-0-
|-2-|-0-|-2-|-|-2-|-0-|-2-|-3-|-|-2-|-0-|-2-|-----------------|-0-|-2-
|-3-|-2-|-0-|-|-3-|-2-|-0-|-3-|-|-3-|-2-|-0-|-----------------|-2-|-3-
|---|-3-|---|-|---|-3-|---|-1-|-|---|-3-|---|-----------------|-3-|---

I need Barenaked Ladies tab for Pinch Me

I would like to learn the song pinch me by the barenaked ladies, so if you have the tab, please post. thanks.

Ministry, Michael Jackson & Smash Mouth Bass Tabs & chords

I need bass tabs & chords of the following song: Black or white (by Michael Jackson), Flo (by Smash Mouth), Bad Blood(by Ministry)

hi

: I need bass tabs & chords of the following song: Smooth Criminal(by Michael Jackson)

Re: Michael Jackson Bass Tabs & chords

i need the bass tabs & chords of "they don´t really care about us" by m jackson. someone who can tell me??

Re: Michael Jackson Bass Tabs & chords

: i need the bass tabs & chords of "she's out of my life" by m jackson. someone who can tell me??

Post new comment

The content of this field is kept private and will not be shown publicly.
CAPTCHA
This question is for testing whether you are a human visitor and to prevent automated spam submissions. Do not include any spaces in your answer.
Image CAPTCHA
Copy the characters (respecting upper/lower case) from the image.

Contact | Advertise | Contents | Privacy Policy | Forum

This site is published by Hitsquad Pty Ltd. Copyright © 1999 - 2017 , All Rights Reserved.