alternative rock guitar tabs

alternative rock guitar tabs

lots of tabs for nirvana, silverchair, bush...etc

TABs for lotsa alternative rock bands. Just made it and I'm updating frequently, I'll accept requests for bands listed on my site. Just e-mail them to sk8er_21_@hotmail.com

Comment viewing options

Select your preferred way to display the comments and click "Save settings" to activate your changes.

Re: tabs for chris cornell

: : would like for any chris cornell songs, particulary "Sweet Euphoria*"

need tabs for kriptonite

please e-mail tabs to kriptonite

i have kryptonite tabs mofuckers!

go here for them... http://www.freshtabs.com/new27/3%20Doors%20Down%20-%20Kryptonite.txt

Re: need tabs for kriptonite

I just saw that you need the taps for Kryptonite and I don´t know how old this webside is so I thought that somebody has sent the tabs to you. If you have the taps could you be so nice to send them to me, I could send some other tabs or chords to you, I´ve got tons of them! :)

Verve Pipe - Freshmen

I am desparate to fing tabs for Freshmen by the Verve Pipe. It would be GREATLY appreciated if you could possibly send them to me. If you have no idea who or what I'm talking about, that's understandably because they're not very well known. But this song is a rip-snorter and I would like to be able to produce my own version in my band.
If you could help I'd be very much obliged.
Thankyou.

Re: Verve Pipe - Freshmen

Hi !

I just seen your message on the board while looking up for the Freshmen tabs on the internet. A little while after I found the tab I was looking for, so now I wish it will help you :o) But for my self I'm only a beginner with tabs, so if you can mail me a legend for the tabs symbols at my e-mail address ( petou@tm.cgocable.ca), I will really appreciate :o) Thanks already !

Here's the full tabs of Verve Pipe - Freshman, and the full lyrics ... if you've got some problemes reading the tabs in this message, you can find it at:

http://www.geocities.com/infoguitar/freshman.html

If hope you will appreciate !

0uitar 1 w/capo on second fret (clean)

Riff 1:
e------------------------------------------
B------------------------------------------
G------------------------------------------
D--9h11----14----16----9h11----14----13----
A------------------------------------------
E------------------------------------------

Riff 2:
e-----------------------------------------
B-----------------------------------------
G--9p8h9----9p8h9----9p8h9----11p9----8h9-
D-----------------------------------------
A-----------------------------------------
E-----------------------------------------

e---------0-----------|---------3-----|-----------------|--------------|
B-----3----------3----|-----3---------|---------3-------|---------0----|
G---2---2------2------|---0---0-------|-----4-----------|-----0--------|
D-0-------------------|---------------|---4---4---4---0-|---0---0------|
A---------------------|---------------|-2-----------0---|--------------|
E---------------------|-3-------------|-----------------|-3------------|
guitar 1 plays once alone. then...
guitar 1 repeats intro and,
guitar 2 w/o capo plays... (clean)

e-------2-------------|---------------|-----------------|--------------|
B---2~5---------------|---------------|---2~5~4---------|--------------|
G-4-------------------|---------------|-4---------------|--------------|
D---------------------|---------------|-2---------------|--------------|
A---------------------|---------------|-----------------|--------------|
E---------------------|---------------|-----------------|--------------|

VERSES.
guitar 1, (same as intro)
e---------0-----------|---------3-----|-----------------|--------------|
B-----3----------3----|-----3---------|---------3-------|---------0----|
G---2---2------2------|---0---0-------|-----4-----------|-----0--------|
D-0-------------------|---------------|---4---4---4---0-|---0---0------|
A---------------------|---------------|-2-----------0---|--------------|
E---------------------|-3-------------|-----------------|-3------------|
1.When I was young I knew everything...

PRE-CHORUS
e--------------------------|---------------|---------------------------|
B--------------------------|-----------0---|---------------------------|
G------4--------2----------|------0--------|------4--------2-----------|
D----4---4----2---0--------|----0---0------|----4---4----2---0---------|
A-2--------0---------------|---------------|-2--------0----------------|
E--------------------------|-3-------------|---------------------------|
I can't be held responsible...

e-----------------------|--------------------|-------------------------|
B-----------0-----------|--------------------|-----------0-------------|
G------0----------------|------4--------2----|------0------------------|
D----0---0--------------|----4---4----2---0--|----0---0----------------|
A-----------------------|-2--------0---------|-------------------------|
E-3---------------------|--------------------|-3-----------------------|
She was touching her face I won't be held responsible

CHORUS
e--------------------------|---------------|---------0-----------------|
B--------------------------|-----------0---|-----3-------3-------------|
G------4--------2----------|------0--------|---2---2---2---0-----------|
D----4---4----2---0--------|----0---0------|-0-------------------------|
A-2--------0---------------|---------------|---------------------------|
E--------------------------|-3-------------|---------------------------|
For the life of me
Some parts missing, i.e. the solos and guitar 2 on chorus. I wanted to post it fast and
simple. For people like you and me so we don't have to go an

Here is a much better way to play it without a capo.

The Freshmen
The Verve Pipe

Verse: E, E, A, A, C#m, C#m B, A, A (twice)
E A C#m A
e---------------|---------5-|---------------|-----------|
b---------7-----|-----------|---------5-----|---------2-|
g-----9-----9---|-----6-----|-----6-----6---|-----2-----|
d---9---9-----9-|---7---7---|---6---6-----6-|---2---2---|
a-7-------------|-----------|-4-------------|-0---------|
E---------------|-5---------|---------------|-----------|

Pre-chorus: C#m, B, A, A (four times)
C#m B A
e---------|---------|-----------|
b---------|---------|---------2-|
g-----6---|-----4---|-----2-----|
d---6---6-|---4---4-|---2---2---|
a-4-------|-2-------|-0---------|
E---------|---------|-----------|

Chorus: E, E, A, A, C#m, C#m B, A, A,
E, E, A, A, C#m, C#m B, A, A
E A C#m A
e---------------|---------5-----|---------------|-------------|
b---------7-----|---------------|---------5-----|---------2---|
g-----9-----9---|-----6-----6---|-----6-----6---|-----2-----2-|
d---9---9-----9-|---7---7-----7-|---6---6-----6-|---2---2-----|
a-7-------------|---------------|-4-------------|-0-----------|
E---------------|-5-------------|---------------|-------------|
Repeat first three measures then A (2nd time play)
e|-----------|
b|---------2-|
g|-----2-----|
d|---2---2---|
a|-0---------|
E|-----------|

Lyrics:
(Verse) When I was young I knew everything
And she a punk who rarely ever took advice
Now I'm guilt-stricken, sobbing with my
Head on the Floor
Stop a baby's breath and a shoe full of rice

(Pre-chorus) I can't be held responsible
Cause she was touching her face
I won't be held responsible
She fell in love in the first place

(Chorus) For the life of me I cannot remember
What made us think that we were wise and
We'd never compromise
For the life of me I cannot believe we'd ever
Die for these sins
We were merely freshmen

My best friend took a week's vacation
To forget her
His girl took a week's worth of Valium
And slept
Now he's guilt-stricken sobbing with
His head on the floor
Thinks about her now and how he never
Really wept he says

(Pre-chorus)
(Chorus)

We've tried to wash our hands of all of this
We never talk of our lacking relationships
And how we're guilt-stricken sobbing with
Our heads on the floor
We fell through the ice when we
Tried not to slip, we'd say

(Pre-chorus)
(Chorus twice)

Your Message: I am desparate to fing tabs for Freshmen by the Verve Pipe. It would be GREATLY appreciated if you could possibly send them to me. If you have no idea who or what I'm talking about, that's understandably because they're not very well known. But this song is a rip-snorter and I would like to be able to produce my own version in my band.
: If you could help I'd be very much obliged.
: Thankyou.

Re: Verve Pipe - Freshmen

: I am desparate to fing tabs for Freshmen by the Verve Pipe. It would be GREATLY appreciated if you could possibly send them to me. If you have no idea who or what I'm talking about, that's understandably because they're not very well known. But this song is a rip-snorter and I would like to be able to produce my own version in my band.
: If you could help I'd be very much obliged.
: Thankyou.

Re: Verve Pipe - Freshmen

Hello how are you doing, im writing from Southern California, and i want to know where i could find a site that teaches you how to read the chords, for example, i don't know how my fingers go when i read the F#m chord, or the Fmaj7, or the B7sus4, so i need a guide that shows me how to play the note when i find this kind of chords in a song. I'd really appreciate it if any of you could help me with this. Thank you very much.

Rony
ronyotz@usa.net

Need Ben Harper The 3 Of Us Tab

I need The 3 of Us by ben harper guitar tab for a performance if u can help please email me

Nirvana

Email me and i'll send u any nirvana song off the albums
Email me @ Aneurysm70@aol

Re: Nirvana

: Email me and i'll send u any nirvana song off the albums
: Email me @ Aneurysm70@aol

Re: Nirvana

: : Email me and i'll send u any nirvana song off the albums
: : Email me @ Aneurysm70@aol

: : I could use the tab for hart shaped box

Re: Nirvana

: Email me and i'll send u any nirvana song off the albums
: Email me @ Aneurysm70@aol

Re: Nirvana

: : Email me and i'll send u any nirvana song off the albums
: : Email me @ Aneurysm70@aol
i could use a tab for breed off of nevermind

Ben harper and GUS

sorry, anyways i need to know how to play Ben Harper's Remake of Marvin Gays' 'Sexual Healing' and also Gus's version of BOC's 'Dont fear the reaper' (dont fear the reaper is on the SCREAM soundtrack)

thanks guys or all your help and lemme know if you can do any of these for me ;) thanks !

Re: Ben harper and GUS

listen to the damn song and then figure it out

Re: Ben harper and GUS

: listen to the damn song and then figure it out

well hey, thannks for your psitive feed back ya freak.
its pri*ks like you who give guitar players a bad name eh?
i mean what ever happened to the free love and help that hippie guitarists used to portray? i hope karma gets you with a good kick to the balls.

(hah btw i figured out gus... but if anyone can help with ben haprers tab, lemme know :) thanks

Re: Ben harper and GUS

If you figured GUS out can you send me the tab pleaze ???

Ben Harper's remake of 'Sexual Healing' and Gus's

Hey guys its me again :)
if you guys can help me with this song id totally appreciate it..
cant find the tabs anywhere.. :(

Re: Ben Harper's remake of 'Sexual Healing' and Gus's

: Hey guys its me again :)
: if you guys can help me with this song id totally appreciate it..
: cant find the tabs anywhere.. :(

well the song is very similar to glory and consequence
just vary it a bit, i find that the chords C, E and Am works very well
with the glory and consequences riff

hope this helps :)

IF someone has poison tabs please email them to me!!!!

Like I stated if u have poison tabs, like "life goes on" ans something to believe in please email them at jerrypullin@yahoo.com

Travis's Remake of BABY ONE MORE TIME needed plz

heyas all,
im looking for a tab of Travis's remake of Brittney spear's 'Baby One more time' the song is so funny on the single its on, i gottttaa play it ;) heh
thanks all

Re: Travis's Remake of BABY ONE MORE TIME needed plz

Travis "baby one more time"
Bm, F#,D,E,F#

that´s it

Re: Travis's Remake of BABY ONE MORE TIME needed plz

Here you go:

the verse and chorus are just

Bm / / / F# / / / D / / / E / F# /

the only different bit goes

G / / / A / / / G / / / E / F# /

Bm 224432
F# 244322
D 254232

Hope it helps
From Rich

correct version of Travis's Remake of BABY ONE MORE TIME needed plz

actually its a capo on the 2nd fret then:

Am////e////c////d//e//

if you don't get that try this.

Am e c d
oh baby baby how was i supposed to know something wasn't
e
right here

Repeat its that easy, during the bridge the off note is a g chord. hope that helps if you need more, email me.

ANYBODY HAVE DIDO, NO ANGEL TABS??

I really really really want any tab for any song on the Dido, No Angel album. If you can help, please send one in! Thnx :)

Re: ANYBODY HAVE DIDO, NO ANGEL TABS??

: I really really really want any tab for any song on the Dido, No Angel album. If you can help, please send one in! Thnx :)

Hi,
sorry but i saw your request right now, if you still need them so look at the follow hompage:
http://guitar.about.com/musicperform/guitar/library/bltab90thayou.htm?terms=Dido+Lyrics

Bye and so long
Alan from italy

need killing heidi tab

could u possible get me killing heidi's 'weir'

ta
*Leah*

Re: need killing heidi tab

: could u possible get me killing heidi's 'weir'

: ta
: *Leah*

Yeah me 2 please
Thanks
JME

Re: need killing heidi tab

to get "Weir", go to;
http://www.guitaretab.com/gtab/t/9697

Re: need killing heidi tab

: could u possible get me <B style="color:black;background-color:#ffff66">killing</B> heidi's 'weir'

: ta
: *Leah*

Re: need killing heidi tab

I really need Killing Heidi WEIR to, PLEASE, I'm desperate

Re: need killing heidi tab

: could u possible get me killing heidi's 'weir'

: ta
: *Leah*

I would really appreciate getting hold of the same if you can help?

Thanks

M

Need Kent's IF YOU WERE HERE tabs & chords

i need tabs and chords of IF YOU WERE HERE - Kent thanx

Papa Roach .....last resort

tabs chords what eva plz....

Re: Papa Roach .....last resort

: tabs chords what eva plz....

Re: Papa Roach .....last resort

: : tabs chords what eva plz.... hi! i need the chords lyrics and tab,of papa roach song called last resort.. thanx

Re: Papa Roach .....last resort

: : : tabs chords what eva plz.... hi! i need the chords lyrics and tab,of papa roach song called last resort.. thanx

Re: Papa Roach .....last resort

: : : : tabs chords what eva plz.... hi! i need the chords lyrics and tab,of papa roach song called last resort.. thanx

Re: Papa Roach .....last resort

bass tabs,of papa roach song called last resort.. thanx

tabs

need tab for jigsaw puzzle blues by peter green (fleetwood mac)

please

i need chords for guitar please

need dido tabs

need dido tabs

This popular thread has been given its own page : need dido tabs

tabs

I NEED POWERMAN 5000 TABS

I need "chords" for 3 doors down loser in acoustic

If any one has or knows where i can get the "chords" for 3 doors down loser in acoustic please let me know.

Thanx, Squeak

Re: I need "chords" for 3 doors down loser in acoustic

: If any one has or knows where i can get the "chords" for 3 doors down loser in acoustic please let me know.

:
: Thanx, Squeak

Re: I need "chords" for 3 doors down loser in acoustic

: : If any one has or knows where i can get the "chords" for 3 doors down loser please let me know.

: :
: : Thanx

Re: I need "chords" for 3 doors down loser in acoustic

If anyone sends you the tabs could you please email them to me?

Thanks
Eezy E

I need "chords" for 3 Doors Down Loser Acustic

I need "chords" for 3 Doors Down Loser Acustic

This popular thread has been given its own page : I need "chords" for 3 Doors Down Loser Acustic

Need SEVENDUST TABS

hey I would like tabs to any of the following: bitch, waffle, rumble fish, black, denial, home, or pretty much what ever sevendust tabs you have...Thanks
-Todd

Post new comment

The content of this field is kept private and will not be shown publicly.
CAPTCHA
This question is for testing whether you are a human visitor and to prevent automated spam submissions. Do not include any spaces in your answer.
Image CAPTCHA
Copy the characters (respecting upper/lower case) from the image.

Contact | Advertise | Contents | Privacy Policy | Forum

This site is published by Hitsquad Pty Ltd. Copyright © 1999 - 2017 , All Rights Reserved.