alternative rock guitar tabs

alternative rock guitar tabs

lots of tabs for nirvana, silverchair, bush...etc

TABs for lotsa alternative rock bands. Just made it and I'm updating frequently, I'll accept requests for bands listed on my site. Just e-mail them to sk8er_21_@hotmail.com



Comment viewing options

Select your preferred way to display the comments and click "Save settings" to activate your changes.

Re: Live tabs for Lightning Crashes

: : desperate need of Live tabs or chords for Lightning Crashes in simplist form, thanx DIDO-here with me

???????

Re: Live tabs for Lightning Crashes

: desperate need of Live tabs or chords for Lightning Crashes in simplist form, thanx

Re: Live tabs for Lightning Crashes

: : desperate need of Live tabs or chords for Lightning Crashes in simplist form, thank

Re: Live tabs for Lightning Crashes

: : desperate need of Live tabs or chords for Lightning Crashes(doesn´t matter what form)

boris on line

hi i need the tabs for the song dolphin's cry live
if you will give it to me i will be very happy :)
any way thanks
p.s. please

Re: Live tabs for Lightning Crashes

: desperate need of Live tabs or chords for Lightning Crashes in simplist form, thanx

Re: Live tabs for Lightning Crashes

I try to get this tab on olga website but it doesn,t work no more I think so be nice and send it to me!!!
ps: so if you have also turn my head lets go!

IN DESPERATE NEED OF TABS BY BLINK 182

I NEED TABS OF BLINK NIRVANA SOMEONE PLEASE HELP ME IM GOING CRAZY LOOKING FOR THEM

posers

ALL OF YOU MUST DIE FOR YOUR INCOMPETENCE!!!!!!!!! HONESTLY........ASKING FOR KID ROCK TABS IS AWFUL BUT TO ACTUALLY ASK FOR KRYPTONITE TABS IS THE WORST. AS IF YOU IDIOTS CANT TAB IT YOURSELF OOOOOOOO WOW FREAKIN BAR CORDS AND A COUPLE NOTE SOLO LEARN IT YOURSELF LOSERS!

kryptonite tabs

need kryptonite tabs

Re: kryptonite tabs

: need kryptonite tabs please
thank you
jean-pierre

Re: kryptonite tabs

i would really like to learn Kryptonite because i think it's a pretty cool song so i need the tabs

Re: kryptonite tabs

i don't even like the band. but the intro riff and all that is pretty bad. someone needs to get offa their ass and do something about it!

Re: kryptonite tabs

I need kryptonite tabs by three dors down

I need chords

I need chords or tabs for three dog night's song Moma told me not to come

Re: I need chords

I need chords or tabs for three dogs night's song "one" (filter version)

My hero tab needed

could somebody please send me the tabs to my hero by the foo fighters?

ckordsmeier@hotmail.com

THREE DOORS DOWN KRYPTONITE

Show me the tabs.

need tabs to "kryptonite"

if anyone has these tabs or knows someone who does could you please let me know or send them to me? thanks

Re: need tabs to "kryptonite"

: if anyone has these tabs or knows someone who could get the solo could you please let me know or send them to me? thanks

need tabs to "loser" by three doors down

if anyone has these tabs or knows where i can get them could you please let me know? thanks

need last resort tabs

if you have the tabs to last resort by papa roach, or kryptonite and loser, both by three doors down i would appreciate it if you send them to me.

!!!!!!!!!!!

!!!!!!!!!!!!!!!!!

I need kid rock american bad ass tabs

please if anyone has tabs for american bad ass by kid rock can you please send them to me thank you.

Re: I need kid rock american bad ass tabs

go to encycmet.com get the tab for SAD BUT TRUE by metallica under the blackalbum, its the EXACT same because kidrock sampled metallica for that song so its the same...

Interstate love song

Could someone please show me the correct cords for this song
durring the verse it sounds like its going down chromaticly,
but i dont think he is using straight bar cords?
does anyone have good tabs on this
thank you in advance, Jack Bishop

Re: Interstate love song

: Could someone please show me the correct cords for this song
: durring the verse it sounds like its going down chromaticly,
: but i dont think he is using straight bar cords?
: does anyone have good tabs on this
: thank you in advance, Jack Bishop

The chords are posted in a back issue of guitar magazineand they are as follows:

e--4-----3-----0-----x------
b--5-----4-----2-----2-----0
g--4-----5-----1-----1-----2
d--6-----6-----3-----2-----2
a--4-----3-----2-----1-----0
e---------------------------

there you have it they are all these weird jazz chords and such, but theyre right so enjoy!!

"Only God Knows Why" Tab needed

If anybody has the Only God Knows Why tab PLEASE email it to me at keyyooo@hotmail.com
thanks

I need Cake tabs

pleez put up some cake tabs cake is so awesome!

Re: I need Cake tabs

: pleez put up some cake tabs cake is so awesome!

Re: I need Cake tabs

: : pleez put up some cake tabs cake is so awesome!

Does somebody have and want to share the tabs for the Cake cover of Lisa Stansfield song: Never, Never Gonna Give You Up

Re: I need Cake tabs

: : : pleez put up some cake tabs cake is so awesome!

: Does somebody have and want to share the tabs for the Cake cover of Lisa Stansfield song: Never, Never Gonna Give You Up

Re: I need Cake tabs

: : : : pleez put up some cake tabs cake is so awesome!

: : Does somebody have and want to share the tabs for the Cake cover of Lisa Stansfield song: Never, Never Gonna Give You Up.. Or thier cover of Berry White's "Never Gonna Give You Up"

Re: I need Cake tabs

: : pleez put up some cake tabs cake is so awesome!

Does somebody have and want to share the tabs for the Cake cover of Lisa Stansfield song: Never, Never Gonna Give You Up

shadow stabbing!

i need cake tabs for shadow stabbing. bass or guitar, it doesn't matter. it just sounds so fun, there's this little riff in there and it sounds so fun

Re: shadow stabbing!

same here. if you happen to have 'em,send 'em this way please

Re: shadow stabbing!

: same here. if you happen to have 'em,send 'em this way please, though i'd rather have bass since im a bass player

Re: I need Cake tabs

: : pleez put up some cake tabs cake is so awesome!

Yeah really, put cake tabs in :)

Re: I need Cake tabs

: : : pleez put up some cake tabs cake is so awesome!

: Yeah really, put cake tabs in :)

Re: I need Cake tabs

: : : : pleez put up some cake tabs cake is so awesome!

: : Yeah really, put cake tabs in :)
perhaps,perhaps

Re: I need Cake tabs

#----------------------------------PLEASE NOTE---------------------------------#
#This file is the author's own work and represents their interpretation of the #
#song. You may only use this file for private study, scholarship, or research. #
#------------------------------------------------------------------------------#
#

Frank Sinatra, by Cake.

Tabbed by xAciDWarPx
Intro: Done on an organ, tabbed for guitar.
D|-------4--------7-------------------------
A|--4-44--4--4-44--4--4-444\5--------5-4-2-0
E|--------------------------5--5-55---------

D|----------7----------------
A|---2-4-4\7---5----7~-------
E|-5------------5--7---------

"WE know of an..."
Then when that's through, you do this lick on the electric:

E-|--2-2h3-3-3p2---
B-|--0-0---0-0-0---

After you do that the acoustic keeps on playing these chords. Watch out for time signature change (3/4):
Eb C G B7
E-|--0-------0-------3-------2-----
B-|--0-------1-------0-------0-----
G-|--0-------0-------0-------2-----
D-|--2-------2-------0-------1-----
A-|--2-------3-------2-------2-----
E-|--0---------------3-------------
Then they play a riff under the last verse before the solo:
D-|----------------------------------------------1~--------------------
A-|----------------3~-----------2~-------------------------------------
E-|-0~-----2---3--------2---3----------2-2-1-0-------------------------
The solo:
G-|-----------------------0~-------------------------------------------
D-|-------2~-----------------------------------------------------------
A-|-2-2-2-------2---2-2-2-------2---2-2-2-3~--------------3--2--0------
E-|---------------------------------------------3---3-3-3----------3---

D-|------------------5~------------4~-
A-|-----0-2---3\5---------2-0-2-------
E-|-3---------------------------------

A-|--------------------------------------------
E-|--5555555555555-77777-88888888-333333333333-

G-|-5-4-2-0------------------------------------------------------------
D-|---------4~---------------------------------------------------------
A-|--------------------------------------------------------------------

OUTRO:
Mostly trumpet.
Finally, after the break, there's this variation on the earlier riff,
Played over and over to fade out:

D-|--------------------------------------------------------------------
A-|----------------3~-----------2~-------------1~----------------------
E-|-0~-----2---3--------2---3----------2---1----------2---3---0--------

Well, I figured the whole darn thing out in 15 minuets,
so its not too hard. This is me first tab I have written If anyone can find the bassline, I would be ever so
grateful.

From Kazachkov_George_A/nhmccd_student@mail.nhmccd.edu Wed Apr 2 08:50:39 1997
Date: Mon, 17 Mar 97 18:08:50 -0600
From: Kazachkov_George_A/nhmccd_student@mail.nhmccd.edu
To: guitar@olga.net
Subject: Cake

These are the two songs from Cake I found the chord progression for. I
haven't learned the words yet, so you must excuse me for not listing the
lyrics.

Frank Sinatra:

Intro:
------------------------------------------------------------------------
------------------------------
------------------------------------------------------------------------
------------------------------
------------------------------0-----------------------------------------
------------------------------
-------------2----------------------------------------------------------
-----------2------------1---
-----2-2-2---2-----2-2-2---2---2-2-2-3--------------3-2-0----------0-2--
--2------0------
------------------------------------------------3---3-3-3----------3---3
-------------2-3---------------

Actual song: Em, C, G, B7
Step down:
--------------------------------------------
---------------------------------------
------------------------------------------
---------------------------------------------
--------------3--------2------1---------------
--0-----2-3-----2-3----2-3----------------------------

I Will Survive:

The chord progression is :
Am Dm G C F B7 E or Em

Have fun...I hope it's right if you have any questions e-mail me at
zhorik@hotmail.com

Re: I need Cake tabs

#----------------------------------PLEASE NOTE---------------------------------#
#This file is the author's own work and represents their interpretation of the #
#song. You may only use this file for private study, scholarship, or research. #
#------------------------------------------------------------------------------#
#

Frank Sinatra, by Cake.

Tabbed by xAciDWarPx
Intro: Done on an organ, tabbed for guitar.
D|-------4--------7-------------------------
A|--4-44--4--4-44--4--4-444\5--------5-4-2-0
E|--------------------------5--5-55---------

D|----------7----------------
A|---2-4-4\7---5----7~-------
E|-5------------5--7---------

"WE know of an..."
Then when that's through, you do this lick on the electric:

E-|--2-2h3-3-3p2---
B-|--0-0---0-0-0---

After you do that the acoustic keeps on playing these chords. Watch out for time signature change (3/4):
Eb C G B7
E-|--0-------0-------3-------2-----
B-|--0-------1-------0-------0-----
G-|--0-------0-------0-------2-----
D-|--2-------2-------0-------1-----
A-|--2-------3-------2-------2-----
E-|--0---------------3-------------
Then they play a riff under the last verse before the solo:
D-|----------------------------------------------1~--------------------
A-|----------------3~-----------2~-------------------------------------
E-|-0~-----2---3--------2---3----------2-2-1-0-------------------------
The solo:
G-|-----------------------0~-------------------------------------------
D-|-------2~-----------------------------------------------------------
A-|-2-2-2-------2---2-2-2-------2---2-2-2-3~--------------3--2--0------
E-|---------------------------------------------3---3-3-3----------3---

D-|------------------5~------------4~-
A-|-----0-2---3\5---------2-0-2-------
E-|-3---------------------------------

A-|--------------------------------------------
E-|--5555555555555-77777-88888888-333333333333-

G-|-5-4-2-0------------------------------------------------------------
D-|---------4~---------------------------------------------------------
A-|--------------------------------------------------------------------

OUTRO:
Mostly trumpet.
Finally, after the break, there's this variation on the earlier riff,
Played over and over to fade out:

D-|--------------------------------------------------------------------
A-|----------------3~-----------2~-------------1~----------------------
E-|-0~-----2---3--------2---3----------2---1----------2---3---0--------

Well, I figured the whole darn thing out in 15 minuets,
so its not too hard. This is me first tab I have written If anyone can find the bassline, I would be ever so
grateful.

From Kazachkov_George_A/nhmccd_student@mail.nhmccd.edu Wed Apr 2 08:50:39 1997
Date: Mon, 17 Mar 97 18:08:50 -0600
From: Kazachkov_George_A/nhmccd_student@mail.nhmccd.edu
To: guitar@olga.net
Subject: Cake

These are the two songs from Cake I found the chord progression for. I
haven't learned the words yet, so you must excuse me for not listing the
lyrics.

Frank Sinatra:

Intro:
------------------------------------------------------------------------
------------------------------
------------------------------------------------------------------------
------------------------------
------------------------------0-----------------------------------------
------------------------------
-------------2----------------------------------------------------------
-----------2------------1---
-----2-2-2---2-----2-2-2---2---2-2-2-3--------------3-2-0----------0-2--
--2------0------
------------------------------------------------3---3-3-3----------3---3
-------------2-3---------------

Actual song: Em, C, G, B7
Step down:
--------------------------------------------
---------------------------------------
------------------------------------------
----------------------------------------

Need Papa Roach, Last Resort Tab

If anyone has this tab could they please take a little time and tell me where to get it or send it to me? Thanks

Re: Need Papa Roach, Last Resort Tab

I NEED THE SONG (LAST RESORT)

Re: Need Papa Roach, Last Resort Tab

: EL POP VALE CALLAMPA.

VIVA LA CUCARACHA

Re: Need Papa Roach, Last Resort Tab

: EL POP VALE CALLAMPA.

VIVA LA CUCARACHA

Re: Need Papa Roach, Last Resort Tab

el pop vale v...ga
.

Re: Need Papa Roach, Last Resort Tab

: If anyone has this tab could they please take a little time and tell me where to get it or send it to me? Thanks
Pd: I´m Puto

Re: Need Papa Roach, Last Resort Tab

: If anyone has this tab could they please take a little time and tell me where to get it or send it to me? Thanks

I have the tab

If you wanna e-mail me, and i will returned the tab in your e-mail.

Post new comment

The content of this field is kept private and will not be shown publicly.
CAPTCHA
This question is for testing whether you are a human visitor and to prevent automated spam submissions. Do not include any spaces in your answer.
Image CAPTCHA
Copy the characters (respecting upper/lower case) from the image.

Contact | Contents | Privacy Policy | Forum

This site is published by Hitsquad Pty Ltd. Copyright © 1999 - 2018 , All Rights Reserved.