dioXin Tablature Archive

dioXin Tablature Archive

Rare and not so rare tabs, along with a discussion and request area.

If you can't find a tab, Request it, and if it's out there, we'll find it! We have rare, and not so rare tabs. Nice format, easy on the eyes! Have your own band? Put up some of your own tabs to get a start!!!

Comment viewing options

Select your preferred way to display the comments and click "Save settings" to activate your changes.

Re: red hot chili peppers bass tabs

: hi, i really would like to have AROUND THE WORLD bass tabs if anyone could mail it to me i would be really happy
: thanks in beforehand

Re: red hot chili peppers bass tabs

: : hi, i really would like to have AROUND THE WORLD bass tabs if anyone could mail it to me i would be really happy
: : thanks in beforehand

Re: red hot chili peppers bass tabs

: : : hi, i really would like to have AROUND THE WORLD bass tabs if anyone could mail it to me i would be really happy
: : : thanks in beforehand
I want road trippin' bass tab or r.h.c.p guitar tabs

Re: red hot chili peppers bass tabs

hey if anyone has bass tabs from the californication cd can they send them to me thnaks

Re: red hot chili peppers bass tabs

My guitar teacher has just given me the chord sequencefor Other side and apparently the bass line is pretty much the same. E-mail me and I can give you the bass line
Tom

Re: red hot chili peppers bass tabs

Id like to have the otherside bass tabs, if some one could email it to me id appreciate it

Re: red hot chili peppers bass tabs

: hi, i really would like to have AROUND THE WORLD bass tabs if anyone could mail it to me i would be really happy
: thanks in beforehand

Re: red hot chili peppers bass tabs

: : hi, i really would like to have AROUND THE WORLD bass tabs if anyone could mail it to me i would be really happy
: : thanks in beforehand

Re: red hot chili peppers bass tabs

Hi! is this:
Intro:
G|--------------------|
D|--------------------|
A|--------------------|
E|--0------0-0-0-0----|

G|--7h9-9-7h9-9-7h9-9-7h9-9-9-7------|
D|------------------------------9-7--|
A|-----------------------------------|
E|-----------------------------------|

G|--7h9-9-7h9-9-7h9-9-7------------| (x4)
D|----------------------9-7--------|
A|--------------------------7-5----|
E|------------------------------7--|

Some notes on the verse needs an octave higher
1st Verse w/ verse variation #1:

G|----10-12-----9-10---10-12-----10-9----|
D|------------------------------------8--|
A|---------------------------------------|
E|--3-------1-3------3-------1-3---------|

G|----10-12-----9-10---10-12----------------|
D|---------------------------------3-2------|
A|-------------------------------1-----3-1--|
E|---------------------------1-3------------|

G|----10-12-----9-10---10-12--------|---10-12-----9-10---10-12--|
D|----------------------------------|---------------------------|
A|---------------------------~3-~1--|---------------------------|
E|--3-------1-3------3--------------|--3------1-3------3--------|

Verse variation #1: Verse variation #2:

G|---------------| G|--------------------|
D|---------------| D|--------------------|
A|------1-x-3-5--| A|----1---1-3-5-8-10--|
E|--1-3----------| E|--3---3-------------|

Chorus 1:

G|----------------------------------------------| (x2)
D|-------10-13-----12--12-------10-------10-----|
A|--11-x--------10--------8--11-------------10--|
E|---------------------------------8--8---------|

2nd Verse with verse variation #1:

G|----10-12-----9-10---10-12------10-9--|
D|--------------------------------------|
A|--------------------------------------|
E|--3-------1-3------3-------1-3--------|

G|----10-12-----9-10---10-12------------------|
D|---------------------------------3-2-3-2-3--|
A|-------------------------------1------------|
E|--3-------1-3------3-------1-3--------------|

G|----10-12-----9-10---10-12--------|----10-12-----9-10---10-12--|
D|----------------------------------|----------------------------|
A|---------------------------~3-~1--|----------------------------|
E|--3-------1-3------3--------------|--3-------1-3------3--------|

Chorus 2 (same as chorus 1)

Intro (second and third bar of Intro, but 4 times instead of 2)

G|----10-12-----9-10---10-12----------------|
D|----------------------------x12-10--------|
A|-----------------------------------12-10--|
E|--3-------1-3------3----------------------|

These are the variations on the Last Chorus
Last Chorus:

G|-------------------------------------------|
D|-----13----13----12-12-----/6-6-5-3-----5--|
A|--11----11----10-------8-8----------3-3----|
E|-------------------------------------------|

G|-------------x7----------------------------------| (x2)
D|--6-6-x6-5-5-------------------------------------|
A|----------------------------1-1-3-x3-1-3-5-8-10--|
E|----------------1-1-3-3-4-4----------------------|

Outro/Ending:

G|-------------------|-------------------------| (x13)
D|--0-3-2------------|--------0-3-2------------|
A|--------5-5-5-5-5--|----3---------5-5-5-5-5--|
E|-------------------|--5---5------------------|

G|------------------------------|-------------------------------|
D|--------0-3-2-----------------|--------0-3-2------------------|
A|----3---------5-/10-10-10-10--|----3---------5-/12-12-12-12\--|
E|--5---5-----------------------|--5---5------------------------|

Re: red hot chili peppers bass tabs

: hi, i really would like to have AROUND THE WORLD bass tabs if anyone could mail it to me i would be really happy
: thanks in beforehand

Re: red hot chili peppers bass tabs

i have the tabs for around the world (out of song book)mail me if u want em.

red hot chili peppers bass tabs

hi, i really would like to have AROUND THE WORLD bass tabs if anyone could mail it to me i would be really happy
thanks in beforehand

Re: red hot chili peppers bass tabs

: hi, i really would like to have californiacaton bass tabs if anyone could mail it to me i would be really happy
: thanks in beforehand

Re: red hot chili peppers bass tabs

I would also like AROUND THE WORLD bass tab. Let me know if anyones got it.

request for hip today

hey phil,

can you get me the hip today tab of extreme coz' i cant find one

thanks a lot

francis

Pretenders

Looking for Pretenders tabs from Pretenders I and Pretenders II
ie Precious, Mystery Achievement, Phone Call, Tattooed Love Boys, The Adultress, Bad Boys Get Spanked etc.

80's tabs

I am looking for tabs by Dead or Alive, Berlin, Kim Wilde, Scandal, and all kinds of stuff from the 80's. Anything is helpful, thanks.

Re: On Dead Or Alive tabs

: I am looking for tabs by Dead or Alive, the song is "You Spin Me Round(Like A Record)"

pappa by paul anker

: : I am looking for tabs by Paul Anker, the song is papa

Re: On Dead Or Alive tabs

: : I am looking for tabs by Dead or Alive, the song is "You Spin Me Round(Like A Record)"
Bon JOvi

Re: 80's tabs

: I am looking for tabs by , Berlin, Kim Wilde, Scandal,Bow wow wow, Wham and all kinds of stuff from the 80's. Anything is helpful, thanks.

Re: 80's tabs

i desperatly want th chods to "you just keep me hanging on" by kim wilde....or the supremes if u prefer. anyway it'd be much ppreciated

Re: 80's tabs

i desperatly want th chods to "yo just keep me hanging on" by kim wilde....or the supremes if u prefer. anyway it'd be much ppreciated

" Neil Diamond"

I have looked everywhere for songs other than the ones listed on the OLGA. zI am looking for these songs: Cracklin Rosie, Holly holy, I am a believer, Thnak the lord for the night time and any others
I hope I will be hearing from you soon.

NEW RED HOT CHILI PEPPERS TABS

I NEED tabs off the new CD Californiacation....any help would be greatly appreciated
thanks

Righteous and the Wicked

Anyone got tabs for The Righteous and The Wicked?

RED HOT CHILI PEPPERS TABS

: I NEED TABS FOR THE SONG CALIFORNICATION FROM THE RED HOT CHILI PEPPERS IF YOU HAVE THEM PLEASE SEND THEM TO ME THANK YOU:GOODBYE

otherside

here is otherside
--7-7-7---------9-7-5-5-5- E
-------7-7-10-7-----------
---------------------------
---------------------------
-----------------------------
---------------------------- e

Re: otherside

: here is otherside
: --7-7-7---------10-7-5-5-5- E
: -------7-7-9-7-----------
: ---------------------------
: ---------------------------
: -----------------------------
: ---------------------------- e

madafakinidiots

There are some many tabs on the internet, just search for then, dont waste your time asking for some tabs that you aren't gonna find this stupid way.
This is a piece of shit.

Draggi

ive got tabs

I can help ya wit dat!

me and my friends

I need tabs and lyrics of me and my friends, could anyone please help soon.

Re: NEW RED HOT CHILI PEPPERS TABS/Around the world

: I NEED tabs off the new CD Californiacation....any help would be greatly appreciated
: thanks
Give me tabs for Around the world Please!

Re: NEW RED HOT CHILI PEPPERS TABS

: I NEED tabs off the new CD Californiacation....any help would be greatly appreciated
: thanks

Re: NEW RED HOT CHILI PEPPERS TABS

I know the proper way to play californication off of that cd. I took it from the sheet music email me for info

Re: NEW RED HOT CHILI PEPPERS TABS

: : I NEED tabs off the new CD Californiacation....any help would be greatly appreciated
: : thanks

Re: NEW RED HOT CHILI PEPPERS TABS

: : : I NEED tabs off the new CD Californiacation....any help would be greatly appreciated
: : : thanks

FUCKING MORONS!!!!

You fucking Idiot!!!! Why don't you just browse the enternet! MORON!!! I find so many fucking tabs. You people fucking piss me off. I'm sick of clicking on a link and it takes me to this dumb shit. DOH!!! DOES ANYBODY HAVE RED HOT CHILI PEPPERS TABS? FUCKING ANOYING!!! morons... SEARCH THE WEB YOU LAZY FUCKS!!!!

Re: FUCKING MORONS!!!!

Whats the ENternet then!

Re: FUCKING MORONS!!!!

I agree with johnny your all fuckwits. search the enternet and you might find something. i'm sick of looking for tabs then finding message board shit such as this. you fucking morons.

Re: NEW RED HOT CHILI PEPPERS TABS

You fucking Idiot!!!! Why don't you just browse the enternet! MORON!!! I find so many fucking tabs. You people fucking piss me off. I'm sick of clicking on a link and it takes me to this dumb shit. DOH!!! DOES ANYBODY HAVE RED HOT CHILI PEPPERS TABS? FUCKING ANOYING!!! morons... SEARCH THE WEB YOU LAZY FUCKS!!!!

Re: NEW RED HOT CHILI PEPPERS TABS

: : I NEED tabs off the new CD Californiacation....any help would be greatly appreciated
: : thanks

Re: NEW RED HOT CHILI PEPPERS TABS

I am in desperate need for for Red Hot Chilli Peppers tab mainly the songs parrelell universe and easily and if you have the solos to scar tissue they would also be great

Re: NEW RED HOT CHILI PEPPERS TABS

: I NEED tabs off the new CD Californiacation....any help would be greatly appreciated
: thanks

Re: NEW RED HOT CHILI PEPPERS TABS

: : I NEED tabs off the new CD Californiacation, and all the other cds....any help would be greatly appreciated
: : thanks

Re: NEW RED HOT CHILI PEPPERS TABS

: I need all the Tabs with lyrics

Re: NEW RED HOT CHILI PEPPERS TABS

: : I need tabs other side

Re: NEW RED HOT CHILI PEPPERS TABS

: : I NEED tabs off the new CD Californiacation....any help would be greatly appreciated
: : thanks

Re: Here are the NEW RED HOT CHILI PEPPERS TABS

Here are the Californiacation tabs, I got them from http://adcontroller.unicast.com/upload/sprt/simu/spri_icwsimulat_a_v01_musicvision_doc.html AIGHT! That is all!
From,
Holt

INTRO

Am F
e|------------------------------------------------------------|
B|---------0---1----------------------------------------------|
G|---------------------------------------0---2----------------|
D|-----2------------------------------------------------------|
A|-0---------------------------------3------------------------|
E|-------------------------------1----------------------------|

VERSE
(play the same arpeggio as in the intro)

C G F Dm
And if .......

PRE-CHORUS
(strum)

Am F7M
e|-0------------------------------0---------------------------|
B|-1------------------------------1---------------------------|
G|-2------------------------------2---------------------------|
D|-2------------------------------2---------------------------|
A|-0------------------------------3---------------------------|
E|------------------------------------------------------------|

Pay your surgeon very well...

CHORUS
(strum)

C G Dm Am C G Dm
Dream of ......

SOLO
(light disto tone)

e-|------9-----------------------9--------------------------------------------|

B-|-10---------7/9--7-------10---------7b(9)7-------7-7-7h5--------------5----|

G-|---------------------------------------------------------6--------4-6------|

D-|---------------------------------------------------------------------------|

A-|---------------------------------------------------------------------------|

E-|---------------------------------------------------------------------------|

e-|------------------------------9----12----14------------9-----12--/16--14---|

B-|-7b(8)r7--5--------------10------------------------10----------------------|

G-|-------------6-------------------------------------------------------------|

D-|---------------------------------------------------------------------------|

A-|---------------------------------------------------------------------------|

E-|---------------------------------------------------------------------------|

e-|-17--16--14--12--14--12-----12--------------------------------12--------12-|

B-|------------------------14-----14----12/14----12/14----12/14------12/14----|

G-|---------------------------------------------------------------------------|

D-|---------------------------------------------------------------------------|

A-|---------------------------------------------------------------------------|

E-|---------------------------------------------------------------------------|

e-|-16-14-12----12------------------12---------------------|
B-|----------14------14---12--------------15---14----------|
G-|----------------------------14-------------------14-----|
D-|-------------------------------------------------/------|
A-|------------------------------------------------/-------|
E-|-----------------------------------------------/--------|
On this note begin to replay the intro part _/

TAB > --12/14---- = slide --14p12---- = pull-off
--7b(9)---- = bend whole step --12h14---- = hammer
--7b(8)r7-- = bend half step and release

----------------------------------------------------------------------
Ok, I think everything is correct, but if you find an error, send me a
correction, alright ?
---------------------------------------------------

Re: NEW RED HOT CHILI PEPPERS TABS

: : I NEED tabs off the new CD Californiacation....any help would be greatly appreciated
: : thanks
I have tabs of green day and peruvian groups

Post new comment

The content of this field is kept private and will not be shown publicly.
CAPTCHA
This question is for testing whether you are a human visitor and to prevent automated spam submissions. Do not include any spaces in your answer.
Image CAPTCHA
Copy the characters (respecting upper/lower case) from the image.

Contact | Advertise | Contents | Privacy Policy | Forum

This site is published by Hitsquad Pty Ltd. Copyright © 1999 - 2017 , All Rights Reserved.